Cifra Club

Deusa Menina

Fernando e Sorocaba

Cifra: Principal (violão e guitarra)
tom: C
Solo:
E-0h2-----------------------------------------------------------------
A|-------0h2-3-------7-------------------------------------------------
D|---------------------5-----------------------------------------------
G|-----------------------5---------------------------------------------
B|-------------------------5-------8-5/3\5-----------------------------
E|---------------------------5-7-8-------------------------------------

E-0h3--------------------------------------------------------------------------
A|--------2---------------------------------------------------------------------
D|------------------------------------------------------------------------------
G|---------2-4-5-4-5------------------------------------------------------------
B|----------------------------------------------6-5-3-6-5-3-6-5-3---------------
E|-----------------------5-7-8-7-5-7--------------------------------------------

E|------------------------------------------------------------------------------------
A|------------------------------------------------------------------------------------
D|----------7-------------7-----------------------------------------------------------
G|---5p4-----4-5-5h7----4-5-5h7-5-4---------------------------------------------------
B|-----------------------------------------------------12-13-10-12--8-10-7-8-5-7-5-4--
E|------------------------------------------------------------------------------------

E|---------------------------------------------------------------------------------------
A|---------------------------------------------------------------------------------------
D|--9-9-8-9-9\10-9---------4-3-4-4\5-4---------------------------------------------------
G|---------------------------------------------------------------------------------------
B|---------------------------------------------------------------------------------------
E|-----7-6-7-7\8-7-----------2-1-2-2\3-2------------------3-2-0-3-2-0-3-2-0-3-2-0-3-2-0-

E|---------------------------------------------------------------------------------------
A|---------------------------------------------------------------------------------------
D|---------------------------------------------------------------------------------------
G|---------------------------------------------------------------------------------------
B|-------------------------------------------------------8-8-7-7-5-7p5-4---4\5-5\7-7-7---
E|--5-3-2-5-3-2-5-3-2-5-3-2-5-3-2-----7-7-7-7-5-5--------------------------2\3-3\5-5-5---

E|------------------------------------------------------------------------------------------------------
A|------------------------------------------------------------------------------------------------------
D|------------------------------------------------------------------------------------------------------
G|------------------------------------------------------------------------------------------------------
B|--------------------------------------------------------------------------------8-8-7-7-5-7p5-4-------
E|--3-2-0-3-2-0-3-2-0-3-2-0-3-2-0--5-3-2-5-3-2-5-3-2-5-3-2-5-3-2-----7-7-7-7-5-5------------------------

E|-----------------------------------------------------------
A|-----------------------------------------------------------
D|-----------------------------------------------------------
G|-----------------------------------------------------------
B|-------8-7-5--8--------------------------------------------
E|--7-5-------------7-7\12-10--------------------------------

G                                 Em
Vejo um clarão na noite iluminando a rua
G                                         Em
Ela é a deusa que passa que deixa sem brilho a lua
F                                  Em
Forte no meu pensamento imagina tanta loucura
F                                  B7               D
Com essa deusa menina o amor tem que ser com fúria
G                                    D
Essa menina é bandida, é uma deusa é um furacão
C                                  D
Por onde passa ela mexe e remexe com meu coração 2x
G           D      C         D
Menina, menina loucura ou prazer
G         D        C         D                Em  G D/F# Em
Menina, menina eu quero ter voce, só pra te amar

Solo Refrão:

E|-------------------------------------------------------------------------------------------------------------
A|-------------------------------------------------------------------------------------------------------------
D|-------------------------------------------------------------------------------------------------------------
G|-------------------------------------------------------------------------------------------------------------
B|--------------------------------------------------------------------------------8-8-7-7-5-7p5-4--4\5-5\7-7-7-
E|--3-2-0-3-2-0-3-2-0-3-2-0-3-2-0--5-3-2-5-3-2-5-3-2-5-3-2-5-3-2-----7-7-7-7-5-5-------------------2\3-3\5-5-5-

E|------------------------------------------------------------------------------------------------------
A|------------------------------------------------------------------------------------------------------
D|------------------------------------------------------------------------------------------------------
G|------------------------------------------------------------------------------------------------------
B|--------------------------------------------------------------------------------8-8-7-7-5-7p5-4-------
E|--3-2-0-3-2-0-3-2-0-3-2-0-3-2-0--5-3-2-5-3-2-5-3-2-5-3-2-5-3-2-----7-7-7-7-5-5------------------------

E|-----------------------------------------------------------
A|-----------------------------------------------------------
D|-----------------------------------------------------------
G|-----------------------------------------------------------
B|-------8-7-5--8--------------------------------------------
E|--7-5-------------7-7\12-10--------------------------------
00:00 / 00:00
Outros vídeos desta música
Repetir
Outros vídeos desta música
Compositor não encontrado.
Colaboração e revisão:
  • Bruno D'lucca
  • Thulio melo
81.294 exibições
    • ½ Tom
    • A
    • Bb
    • B
    • C
    • Db
    • D
    • Eb
    • E
    • F
    • F#
    • G
    • Ab
  • Adicionar à lista

    0 comentários

    Ver todos os comentários

    Entre para oCifra Club PRO

    Tenha acesso a benefícios exclusivos no App e no Site

    • Chega de anúncios

    • Prioridade de compra em lançamentos

    • Mais recursos no app do Afinador

    • Atendimento Prioritário

    • Descontos nos produtos Cifra Club

    • Ajude a produzir mais conteúdo

    00:00 / 00:00

    Cifra Club Pro

    Aproveite o Cifra Club com benefícios exclusivos e sem anúncios
    Cifra Club Pro
    Aproveite o Cifra Club com benefícios exclusivos e sem anúncios
    OK