Notificações Amigos pendentes

      Fernando e Sorocaba

      Everest

      308.661 exibições
      Tom: C
      Intro:
      
          G                 C9
      E|-x--x--x--x--x--x--x--x--x--x--x-x-x-|
      B|-8--8--8--8--8--8--8--8--8--8--8-8-8-|
      G|-7--5--4--4--5--7--5--4--x--x--x-x-x-|
      D|-x--x--x--x--x--x--x--x--5--5--5-5-5-|
      A|-------------------------------------|
      E|-------------------------------------|
      
      
          G           C9
      E|-x--x--x--x--x--x--x--x--x-x-|
      B|-8--8--8--8--8--8--8--8--8-8-|
      G|-7--5--4--4--5--7--5--4--x-x-|
      D|-x--x--x--x--x--x--x--x--5-5-|
      A|-----------------------------|
      E|-----------------------------|
      
      
      G
        Eu vou contar meu segredo
      C9
        Falar pro mundo inteiro
         Em7
      Tatuar o seu nome
      
      Roubar o seu beijo
      C9
        Porque eu te amo sem medo
      
              G
      Quer saber
               C9
      Faço de tudo pra te merecer
              Em7
      Quer saber
              D9
      O impossível é pouco pra você
      
      Refrão:
      G                                      C9
        Vou escalar o Everest com uma mão só
                                                Em7
      Atravessar um oceano em um barco de papel
                                               D9
      Se for preciso eu posso até roubar um avião
      
      Pra te levar pro céu
      
      G                                         C9
        Eu corro a 120 com um carro na contramão
                                               Em7
      Me lanço ao vento do décimo quinto andar
      
      Aprendo a voar
                  D9
      Para te provar
      
             Am
      Que a fé move montanhas
            C/B    C
      E eu movo o mundo
      
      Pra te amar
      
      Solo:
      
          G
      E|-x-x-x-x-x-x-x-x-x-x-x-x-x-x-x-x-x-x-|
      B|-8-8-8-8-8-8-8-8-8-8-8-8-8-8-8-8-8-8-|
      G|-7-7-7-5-5-5-4-4-4-4-4-4-5-5-5-7-7-7-|
      D|-x-x-x-x-x-x-x-x-x-x-x-x-x-x-x-x-x-x-|
      A|-------------------------------------|
      E|-------------------------------------|
      
      
          C9
      E|-x-x-x-x-x-x-x-x-x-x-x-x-x--x--x--x--|
      B|-8-8-8-8-8-8-8-8-8-8-8-8/10-10-10-10-|
      G|-5-5-5-4-4-4-x-x-x-x-x-x-x--x--x--x--|
      D|-x-x-x-x-x-x-5-5-5-5-5-5/7--7--7--7--|
      A|-------------------------------------|
      E|-------------------------------------|
      
      
          Em7
      E|-x---x-x-x---x-x-x---x-x-x---x-x-x---x-x-x-|
      B|-7h8-8-8-7h8-8-8-7h8-8-8-7h8-8-8-7h8-8-8-8-|
      G|-7h9-9-9-7h9-9-9-7h9-9-9-7h9-9-9-7h9-9-9-9-|
      D|-x---x-x-x---x-x-x---x-x-x---x-x-x---x-x-x-|
      A|-------------------------------------------|
      E|-------------------------------------------|
      
      
                C9
      E|-x--x--x---x--x--x---x--x--x--|
      B|-12-12-12--12-12-12--12-12-12-|
      G|-12-12-12--12-12-12--12-12-12-|
      D|-x--x--x---x--x--x---x--x--x--|
      A|------------------------------|
      E|------------------------------|
      
      
      E|-x--x--x--x--x--x--x--|
      B|-15-15-15-15-15-15-15-|
      G|-16-16-16-16-16-16-16-|
      D|-x--x--x--x--x--x--x--|
      A|----------------------|
      E|----------------------|
      
      
      G
        Eu vou contar meu segredo
      C9
        Falar pro mundo inteiro
         Em7
      Tatuar o seu nome
      
      Roubar o seu beijo
      C9
        Porque eu te amo sem medo
      
              G
      Quer saber
               C9
      Faço de tudo pra te merecer
              Em7
      Quer saber
              D9
      O impossível é pouco pra você
      
      Refrão:
      G                                      C9
        Vou escalar o Everest com uma mão só
                                                Em7
      Atravessar um oceano em um barco de papel
                                               D9
      Se for preciso eu posso até roubar um avião
      
      Pra te levar pro céu
      
      G                                         C9
        Eu corro a 120 com um carro na contramão
                                               Em7
      Me lanço ao vento do décimo quinto andar
      
      Aprendo a voar
                  D9
      Para te provar
      
             Am
      Que a fé move montanhas
            C/B    C
      E eu movo o mundo
      
      F                                         Am
        Eu atravesso o universo, mudo o meu destino por você
             C9
      Por você
      
      Refrão 2x:
      G                                      C9
        Vou escalar o Everest com uma mão só
                                                Em7
      Atravessar um oceano em um barco de papel
                                               D9
      Se for preciso eu posso até roubar um avião
      
      Pra te levar pro céu
      
      G                                         C9
        Eu corro a 120 com um carro na contramão
                                               Em7
      Me lanço ao vento do décimo quinto andar
      
      Aprendo a voar
                  D9
      Para te provar
      
            Am
      Que a fé move montanhas
            C/B       C
      E eu movo o mundo
                 G
      Pra te amar
      
      
          G
      E|-x--x--x--x-----------|
      B|-8--8--8--8-----------|
      G|-7--5--4--4--3--------|
      D|-x--x--x--x----5-3-5--|
      A|----------------------|
      E|----------------------|
      
      
      E|-3--3--3--|
      B|-3--3--3--|
      G|-0--0--0--|
      D|-0--0--0--|
      A|-2--2--2--|
      E|-3--3--3--|
      
        Composição: SorocabaColaboração e revisão:
        • gabrielrodrigo
        • Henry
        • Andrezinho
        • kalu
        • +2

        Comentários 31

        140 .
        • veronica veronica: Em 31/08/2014 13:14

          A música é muito boa conseguir tocar tenho só 9 anos de idade

        • Gabriel Gabriel: Em 26/07/2014 14:09

          Nota 10 esa pagina

        • cjrd cjrd: Em 10/01/2013 13:50

          Muito fácil nem precisa de video aula.

        • mialmeida mialmeida: Em 21/09/2012 23:02

          no dvd mostra o luan santana tocando no refrão tem variações

        • mialmeida mialmeida: Em 10/08/2012 20:08

          pelo jeito nem vai ter vídeo aula

        • jhonnyr10 jhonnyr10: Em 25/07/2012 14:45

          qual a batida da musica ?

        • biraho biraho: Em 06/07/2012 23:25

          realmente,batida: só pra baixo ou variando,cifraclub aqui

        • oiryan oiryan: Em 12/06/2012 09:38

          demorei mais peguei o solo certinho *---*

        • grakitos grakitos: Em 08/06/2012 12:47

          Cifra Club Coloquem video aula para ajudar no solo , o resto da musica e facil ;S . #VIDEOAULAEVEREST

        • aninha1969 aninha1969: Em 01/06/2012 19:46

          a batida é só pra baixo

        140 cancelar

        conseguiu tocar?

        • •••

        covers

        Grave um vídeo tocando Everest e mande pra gente!

        Ex.: http://www.youtube.com/watch?v=0IvSvIwGdwk
        ver covers de outras músicas »
        0:00 / 0:00

        Capítulos

          2 versões de violão dificuldade exibições contribuição e correção
          2 versões de guitarra dificuldade exibições contribuição e correção
          2 versões de cavaco dificuldade exibições contribuição e correção
          2 versões de teclado dificuldade exibições contribuição e correção
          play/pausefechar subir/descer velocidade
          6ª corda E5ª corda A4ª corda D3ª corda G2ª corda B1ª corda E
            acordes
            publicidade
            fechar
            ok