Cifra Club

Everest

Fernando e Sorocaba

Cifra: Principal
exibições 318.945
Tom: C
Intro:
    G                 C9
E|-x--x--x--x--x--x--x--x--x--x--x-x-x-|
B|-8--8--8--8--8--8--8--8--8--8--8-8-8-|
G|-7--5--4--4--5--7--5--4--x--x--x-x-x-|
D|-x--x--x--x--x--x--x--x--5--5--5-5-5-|
A|-------------------------------------|
E|-------------------------------------|
    G           C9
E|-x--x--x--x--x--x--x--x--x-x-|
B|-8--8--8--8--8--8--8--8--8-8-|
G|-7--5--4--4--5--7--5--4--x-x-|
D|-x--x--x--x--x--x--x--x--5-5-|
A|-----------------------------|
E|-----------------------------|

G
  Eu vou contar meu segredo
C9
  Falar pro mundo inteiro
   Em7
Tatuar o seu nome

Roubar o seu beijo
C9
  Porque eu te amo sem medo

        G
Quer saber
         C9
Faço de tudo pra te merecer
        Em7
Quer saber
        D9
O impossível é pouco pra você

Refrão:
G                                      C9
  Vou escalar o Everest com uma mão só
                                          Em7
Atravessar um oceano em um barco de papel
                                         D9
Se for preciso eu posso até roubar um avião

Pra te levar pro céu

G                                         C9
  Eu corro a 120 com um carro na contramão
                                         Em7
Me lanço ao vento do décimo quinto andar

Aprendo a voar
            D9
Para te provar

       Am
Que a fé move montanhas
      C/B    C
E eu movo o mundo

Pra te amar

Solo:
    G
E|-x-x-x-x-x-x-x-x-x-x-x-x-x-x-x-x-x-x-|
B|-8-8-8-8-8-8-8-8-8-8-8-8-8-8-8-8-8-8-|
G|-7-7-7-5-5-5-4-4-4-4-4-4-5-5-5-7-7-7-|
D|-x-x-x-x-x-x-x-x-x-x-x-x-x-x-x-x-x-x-|
A|-------------------------------------|
E|-------------------------------------|
    C9
E|-x-x-x-x-x-x-x-x-x-x-x-x-x--x--x--x--|
B|-8-8-8-8-8-8-8-8-8-8-8-8/10-10-10-10-|
G|-5-5-5-4-4-4-x-x-x-x-x-x-x--x--x--x--|
D|-x-x-x-x-x-x-5-5-5-5-5-5/7--7--7--7--|
A|-------------------------------------|
E|-------------------------------------|
    Em7
E|-x---x-x-x---x-x-x---x-x-x---x-x-x---x-x-x-|
B|-7h8-8-8-7h8-8-8-7h8-8-8-7h8-8-8-7h8-8-8-8-|
G|-7h9-9-9-7h9-9-9-7h9-9-9-7h9-9-9-7h9-9-9-9-|
D|-x---x-x-x---x-x-x---x-x-x---x-x-x---x-x-x-|
A|-------------------------------------------|
E|-------------------------------------------|
          C9
E|-x--x--x---x--x--x---x--x--x--|
B|-12-12-12--12-12-12--12-12-12-|
G|-12-12-12--12-12-12--12-12-12-|
D|-x--x--x---x--x--x---x--x--x--|
A|------------------------------|
E|------------------------------|

E|-x--x--x--x--x--x--x--|
B|-15-15-15-15-15-15-15-|
G|-16-16-16-16-16-16-16-|
D|-x--x--x--x--x--x--x--|
A|----------------------|
E|----------------------|

G
  Eu vou contar meu segredo
C9
  Falar pro mundo inteiro
   Em7
Tatuar o seu nome

Roubar o seu beijo
C9
  Porque eu te amo sem medo

        G
Quer saber
         C9
Faço de tudo pra te merecer
        Em7
Quer saber
        D9
O impossível é pouco pra você

Refrão:
G                                      C9
  Vou escalar o Everest com uma mão só
                                          Em7
Atravessar um oceano em um barco de papel
                                         D9
Se for preciso eu posso até roubar um avião

Pra te levar pro céu

G                                         C9
  Eu corro a 120 com um carro na contramão
                                         Em7
Me lanço ao vento do décimo quinto andar

Aprendo a voar
            D9
Para te provar

       Am
Que a fé move montanhas
      C/B    C
E eu movo o mundo

F                                         Am
  Eu atravesso o universo, mudo o meu destino por você
       C9
Por você

Refrão 2x:
G                                      C9
  Vou escalar o Everest com uma mão só
                                          Em7
Atravessar um oceano em um barco de papel
                                         D9
Se for preciso eu posso até roubar um avião

Pra te levar pro céu

G                                         C9
  Eu corro a 120 com um carro na contramão
                                         Em7
Me lanço ao vento do décimo quinto andar

Aprendo a voar
            D9
Para te provar

      Am
Que a fé move montanhas
      C/B       C
E eu movo o mundo
           G
Pra te amar

    G
E|-x--x--x--x-----------|
B|-8--8--8--8-----------|
G|-7--5--4--4--3--------|
D|-x--x--x--x----5-3-5--|
A|----------------------|
E|----------------------|

E|-3--3--3--|
B|-3--3--3--|
G|-0--0--0--|
D|-0--0--0--|
A|-2--2--2--|
E|-3--3--3--|
Acordes para:

    0 comentários

      mostrar mais comentários

      Conseguiu tocar?

      56tocaram2ainda não

      Grave um vídeo tocando Everest e mande pra gente!

      00:00 / 00:00
      outros vídeos desta música
      repetirqualidadeautomática
      Outro vídeos desta música
        00:00 / 00:00
        automática
        OK