Cifra Club

Fica Comigo

Fernando e Sorocaba

Cifra: Principal (violão e guitarra)
tom: B
Intro 2x: B  F#  E  E

B
Se pra mostrar que é mais forte
E
Você tem que brincar com os meus sentimentos
G#m              F#                          E
Só lamento por você, você tem muito que aprender
B
Um grande amor não é questão de sorte
E
E pode ser que você nunca note
G#m                    F#                    E
Que eu faço tudo por você, mesmo sem você merecer

Pré-refrão:

C#m
Sempre acha que não precisa de alguém
E
E que vivendo deste jeito está muito bem
B
Fica fazendo pouco caso
                    F#
Mais quando está sozinha aparece
E me pede

Refrão:

B       F#          E
Fica comigo esta noite
Que eu te faço feliz
B        F#         E
Finge que eu sou o amor
Que você sempre quis
G#m   F#        E
Amanhã é outro dia
E a gente ve como é que

B     F#          E
Fica comigo esta noite
                   G#m
Que eu te faço feliz

G#m F# E E (2x)

SOLO :

E|-----------------------------------------------|
B|-12-14b16-~~--14b16-14b16-14b16-12-11-12-------|
G|-----------------------------------------13~~--|
D|-----------------------------------------------|
A|-----------------------------------------------|
E|-----------------------------------------------|

E|-----------------------------------------------|
B|-----------------------------------------------|
G|--11----------------------11p9-11/13~~---------|
D|-----13-11-------------------------------------|
A|-----------14p13-11\9\7/9----------------------|
E|-----------------------------------------------|

E|-----------------------------------------------|
B|-----------------------------------------------|
G|-----------------------------------------------|
D|--13p11----------------------------------------|
A|--------13-9h11/13-11\9\7-6--------------------|
E|-----------------------------------------------|

B
Se pra mostrar que é mais forte
E
Você tem que brincar com os meus sentimentos
G#m              F#                          E
Só lamento por você, você tem muito que aprender

E|---------------------------------|
B|--7b9r7~~/12-12------------------|
G|----------------11~~\9-8-9p8-----|
D|---------------------------------|
A|---------------------------------|
E|---------------------------------|

E|---------------------------------|
B|--12-12-12-14-12-14b16r14p12-14--|
G|---------------------------------|
D|---------------------------------|
A|---------------------------------|
E|---------------------------------|

B
E um grande amor não é questão de sorte
E
E pode ser que você nunca note
G#m                    F#                    E
Que eu faço tudo por você, mesmo sem você merecer

(pré-refrão)

C#m
Sempre acha que não precisa de alguém
E
E que vivendo deste jeito está tudo bem

E|-----14-----|
B|--12----12--|

B
Fica fazendo pouco caso
                    F#
Mais quando está sozinha aparece
E me pede

(refrão)

B       F#          E
Fica comigo esta noite
Que eu te faço feliz
B        F#         E
Finge que eu sou o amor
Que você sempre quis
G#m   F#        E
Amanhã é outro dia
E a gente ve como é que fica

B       F#          E
Fica comigo esta noite
Que eu te faço feliz
B        F#         E
Finge que eu sou o amor
Que você sempre quis
G#m   F#        E
Amanhã é outro dia
                          G#m
E a gente ve como é que fica

G#m     F#            E
Outra vez eu sei que você vai fugir
G#m       F#       E          F#
Mas vou esperar, você ligar e me pedir

B       F#          E
Fica comigo esta noite
Que eu te faço feliz
B        F#         E
Finge que eu sou o amor
Que você sempre quis
G#m   F#        E
Amanhã é outro dia
                           G#m   F#   E   E
E a gente ve como é que fica
                           B
E a gente ve como é que fica
00:00 / 00:00
Outros vídeos desta música
Repetir
Outros vídeos desta música
Composição de Caco Nogueira / Sorocaba
Colaboração e revisão:
  • Marquinhos Sene
  • Igor Rocha
  • Edinan Souza
30.477 exibições
    • ½ Tom
    • A
    • Bb
    • B
    • C
    • Db
    • D
    • Eb
    • E
    • F
    • F#
    • G
    • Ab
  • Adicionar à lista

    0 comentários

    Ver todos os comentários

    Entre para oCifra Club PRO

    Tenha acesso a benefícios exclusivos no App e no Site

    • Chega de anúncios

    • Prioridade de compra em lançamentos

    • Mais recursos no app do Afinador

    • Atendimento Prioritário

    • Descontos nos produtos Cifra Club

    • Ajude a produzir mais conteúdo

    00:00 / 00:00

    Cifra Club Pro

    Aproveite o Cifra Club com benefícios exclusivos e sem anúncios
    Cifra Club Pro
    Aproveite o Cifra Club com benefícios exclusivos e sem anúncios
    OK