Cifra Club

Mulher do Paraná

Fernando e Sorocaba

Cifra: Principal (violão e guitarra)
tom: A
(solo)

E|---------------------------------------------------9---7---5--|
B|--------------------------------------------------------------|
G|-------------------------------------------------9---7---6----|
D|---7--9--11--9--7---------------------------------------------|
A|-7-----------------7--9--12-12--9-11--9-9--5--7---------------|
E|--------------------------------------------------------------|

E|---5--7--9--7--5---------7--9--10--9--7---------------12--10-9-----------------------|
B|-5---------------9--7--7----------------10-9---10--12----------12--10------5----10-10|
G|---------------------------------------------9---------------------------------------|
D|-------------------------------------------------------------------------------------|
A|-------------------------------------------------------------------------------------|
E|-------------------------------------------------------------------------------------|

A                   D
Hoje tem festa na cidade
            E         A A4 A
E eu quero vê você dançar
                        D
Você é a estrela do meu céu
        E            A   A4 A
Você é fogo, é água, é ar
                    D
Hoje tem festa na cidade
           E          A A4 A
E eu quero vê você dançar
                        D
Você é a estrela do meu céu
        E              A A4 A
Você é fogo, é água, é ar
                        E
Com o seu corpo ninguém pode
                A
Você manda no salão
                    E
Vai mexendo essa cintura
       D            A
Vai descendo até o chão
                   E
Vem, me mata de alegria
                 A
Me machuca de paixão
                D
Ela é feita de açúcar
      E         A
Ela é pura sedução
                  E             D
Vai, vai, requebra, rebola a cintura, chega mais pra
AA7             D             E          A
É a moça mais bonita que eu já vi no paraná
00:00 / 00:00
Outros vídeos desta música
Repetir
Outros vídeos desta música
Composição de Fernando / Sorocaba
Colaboração e revisão:
  • Douglas Siedsc
  • diego martins
  • Rodrigo Dezotti
68.663 exibições
    • ½ Tom
    • A
    • Bb
    • B
    • C
    • Db
    • D
    • Eb
    • E
    • F
    • F#
    • G
    • Ab
  • Adicionar à lista

    0 comentários

    Ver todos os comentários

    Conseguiu tocar?

    4 Tocaram 0 Ainda não

    Grave um vídeo tocando Mulher do Paraná e nos envie!

    Entre para oCifra Club PRO

    Tenha acesso a benefícios exclusivos no App e no Site

    • Chega de anúncios

    • Prioridade de compra em lançamentos

    • Mais recursos no app do Afinador

    • Atendimento Prioritário

    • Descontos nos produtos Cifra Club

    • Ajude a produzir mais conteúdo

    00:00 / 00:00

    Cifra Club Pro

    Aproveite o Cifra Club com benefícios exclusivos e sem anúncios
    Cifra Club Pro
    Aproveite o Cifra Club com benefícios exclusivos e sem anúncios
    OK