Cifra Club

Aprenda

Noite Enluarada

Fernando e Sorocaba

Cifra: Principal (violão e guitarra)
tom: G
Intro: G  D  C  G  D  C  G

E|-----------------------------------------3-------------------------------||
B|---3---3-3---3-3-3--3---3-3--------------3-------------------------------||
G|---0---0-0---0-0-0--0---0-0--------------0-------------------------------||
D|---4h5-5-5---5-5-5--4h5-5-5-3h2-0-----0--0-------------------------------||
A|----------------------------------2h3----2-------------------------------||
E|-----------------------------------------3-------------------------------||

E|-----------------------------3-3-3-3---3---5-5-5b7-----5-5-5b7-----------||
B|--3--3--3--1--0--1-1p0---------------5--------------8-----------8--------||
G|-------------------------2-----------------------------------------------||
D|-------------------------------------------------------------------------||
A|-------------------------------------------------------------------------||
E|-------------------------------------------------------------------------||
 Outra versão mais fácil do solo

E|-------------------3-3-3-3-0-3-5-5/7-3-5-5/7-3---------------------------||
B|--3-3-3-1-0-1-0----------------------------------------------------------||
G|-----------------2-------------------------------------------------------||
D|-------------------------------------------------------------------------||
A|-------------------------------------------------------------------------||
E|-------------------------------------------------------------------------||

E|--10--10--10--8--7--8--7p8-----15-15-15----15--17-17p19-17-15-17p19-17-15||
B|----------------------------10----------17-------------------------------||
G|-------------------------------------------------------------------------||
D|-------------------------------------------------------------------------||
A|-------------------------------------------------------------------------||
E|-------------------------------------------------------------------------||

 G        D
Noite enluarada
 Em             D      C
Hoje vou te amar
                     G        Am
Ponho o carro na estrada
                  D    G
E saio a te procurar

                D         Em
O amor não foi feito
                D D4 D   C
Pra se desperdiçar
                  G            Am
Vou bater em sua porta
                    D                           C
Te convidar pra dançar, Ah!, Ah!, Ah!, Ah!

            G       C
Você é tão bela
              G       C
Tão jovem também
                G              Am
Vamos curtir a noite, Ih, Ei
               D       C
Juntinhos meu bem

                G         C
Olha agora pro céu
              G            C
E veja as estrelas
               G           Am
Você é a mais bela, Ah, Ah

Não vou dormir
      D D9 D D4 D9                 G
Não quero perdê-la

(refrão 2x)
                     D             C
E nessa noite com você eu quero estar
                            G
Do seu lado até o dia clarear
           D           C
No meu cantinho do sertão
                                   G
Fazer de tudo pra ganhar seu coração

G     D        Em   C
IÊ!, Êh!, IH, ÊI!
 G    D        Em  C  G
IÊ!, EH!, IH, EI!

(solo) D  Em  C  G  D  Em  C  G

(repete tudo)

(repete refrão 2x)
Composição de F. Sorocaba
340.192 exibições
    • ½ Tom
    • A
    • Bb
    • B
    • C
    • Db
    • D
    • Eb
    • E
    • F
    • F#
    • G
    • Ab
  • Adicionar à lista

    0 comentários

    Ver todos os comentários
    00:00 / 00:00
    Outros vídeos desta música
    Repetir Qualidade Automático
    Outros vídeos desta música
    00:00 / 00:00
    Automático

    Cifra Club Pro

    Aproveite o Cifra Club com benefícios exclusivos e sem anúncios
    Cifra Club Pro
    Aproveite o Cifra Club com benefícios exclusivos e sem anúncios
    OK