Cifra Club

Ouro e Diamante

Fernando e Sorocaba

Cifra: Principal (violão e guitarra)
Tom: C
  C                    F
Todo mundo sabe que o amor não se esconde
          C                  G
eu não quero ficar longe de você
   Am
nosso amor é fogo
    F
brilha forte
             C
como ouro e diamante
                 G  C
minha luz do amanhecer

Solo: Am  Em  F  C  Am  Em  F  G
E|--------------------------------------------------------------------------------------------------|
B|--------------------------------------------------------------------------------------------------|
G|--4h5-4---------4h5-4-------------------9-7-5--4h5-4---------4h5-4-----5/7-5---------7/9-7-7h9-7--|
D|--------7-5---5-------7-5---5--7-5-7-----------------7-5---5------7-5--------7-9-10-7-------------|
A|------------7-------------7----------5-7-----------------7------------7---------------------------|
E|--------------------------------------------------------------------------------------------------|

Am       G
Não da mais...
F                            C G
é tudo que eu escuto de sua boca
Am           G
quero....ter paz
F                    E
pra você nossa paixão é louca
      Am
como imã e o ferro
     Em
os opostos se atraem
F               C G
eu vou te buscando
  Am
como o rio busca o mar
  Em
sinto você no ar
    F          G
vou te procurando

Refrão:
  C                     F
Todo mundo sabe que o amor não se esconde
          C                  G
eu não quero ficar longe de você
   Am
nosso amor é fogo
    F
brilha forte
             C
como ouro e diamante
                 G
minha luz do amanhecer
  Am                    F
Todo mundo sabe que o amor não se esconde
         C                  G
eu não quero ficar longe de você
  Am
nosso amor é fogo
   F
brilha forte
            C
como ouro e diamante
                G  C
minha luz do amanhecer

Solo: Am  Em  F  C  Am  Em  F  G
E|--------------------------------------------------------------------------------------------------|
B|--------------------------------------------------------------------------------------------------|
G|--4h5-4---------4h5-4-------------------9-7-5--4h5-4---------4h5-4-----5/7-5---------7/9-7-7h9-7--|
D|--------7-5---5-------7-5---5--7-5-7-----------------7-5---5------7-5--------7-9-10-7-------------|
A|------------7-------------7----------5-7-----------------7------------7---------------------------|
E|--------------------------------------------------------------------------------------------------|

Am        G
Diz pra mim
F                          C G
que eu ainda moro no seu peito
Am        G
não tem fim
F
o amor bateu com força
         E
não tem jeito
  Am
como imã e ferro
     Em
os opostos se atraem
 F                  C G
eu vou te buscando
  Am
como o rio busca o mar
  Em
sinto você no ar
    F          G
vou te procurando

Refrão 2x:
  C                     F
Todo mundo sabe que o amor não se esconde
          C                  G
eu não quero ficar longe de você
   Am
nosso amor é fogo
    F
brilha forte
             C
como ouro e diamante
                 G
minha luz do amanhecer
  Am                    F
Todo mundo sabe que o amor não se esconde
         C                  G
eu não quero ficar longe de você
  Am
nosso amor é fogo
   F
brilha forte
            C
como ouro e diamante
                G  C
minha luz do amanhecer

Solo: Am  Em  F  G  C
E|----------------------------------
B|----------------------------------
G|-4~5-4-----5-4----5~7-5--4-5-7-5--
D|------7-5-5---7-5-------7---------
A|---------7-------7----------------
E|----------------------------------
exibições 94.251
Acordes para:
    Composição: Sorocaba Colaboração e revisão:
    • Cleberson Vosilk
    • William Zocolaro
    • Caio Silveira

    0 comentários

    mostrar mais comentários

    Conseguiu tocar?

    4 tocaram 0 ainda não

    Grave um vídeo tocando Ouro e Diamante e mande pra gente!

    00:00 / 00:00
    outros vídeos desta música
    repetir qualidade Automático
    Outros vídeos desta música
    00:00 / 00:00
    Automático
    OK