Cifra Club

Sonhos

Fernando e Sorocaba

Cifra: Principal (violão e guitarra)
tom: E
Intro: F#  C#  D#m  B
       F#  C#  D#m  C#m
E|-------2-----9---7----6---4----2---4--|
B|-2--2---------------------------------|
G|--------------------------------------|
D|--------------------------------------|
A|--------------------------------------|
E|--------------------------------------|

E|------2-----9---7----6---4----2--4-2--|
B|--2-----------------------------------|
G|--------------------------------------|
D|--------------------------------------|
A|--------------------------------------|
E|--------------------------------------|

E|----2---9---7----6---4---2--1-2-1/2-1-|
B|-2------------------------------------|
G|--------------------------------------|
D|--------------------------------------|
A|--------------------------------------|
E|--------------------------------------|

F#  C#     D#m     B
Ela chegou, está na hora de subir
F#     C#    D#m        B
A cama queima sempre que ela está aqui
F#    C#     D#m      B
E as paredes da minha casa vem ao chão
F#       C#   D#m         B
Eu sinto fogo nas batidas do seu coração

Solo: F#  C#  B  C#

F#     C# D#m        B
Meu violão só quer falar do meu amor
F#      C#    D#m       B
Dama da noite eu vou contigo aonde for
F#         C#  D#m        B
Sinto o perfume meu mundo gira por você
F#      C#  D#m        B
A noite cala a voz que chama o amanhecer

( F#  C#  D#m  C#  B )

Refrão:
F# C# D#m
Sonhos...
B                    F#
Asas que me deixam voar
           C#
Meu quarto gira
       D#m
A cama treme
          B
As coisas voam... (e tudo sai do lugar)
F# C# D#m
Sonhos....
B                     F#
Eu não quero mais acordar
         C#
Rosa do amor
         D#m            B
O seu perfume, o seu espinho
                F# C# D#m B F# C# D#m C#m
Faz a cabeça girar...

F#     C# D#m        B
Meu violão só quer falar do meu amor
F#      C#    D#m       B
Dama da noite eu vou contigo aonde for
F#         C#  D#m        B
Sinto o perfume meu mundo gira por você
F#      C#  D#m        B
A noite cala a voz que chama o amanhecer

( F#  C#  D#m  C#  B )

(Refrão 2x)
00:00 / 00:00
Outros vídeos desta música
Repetir
Outros vídeos desta música
Composição de Sorocaba
Colaboração e revisão:
64.531 exibições
    • ½ Tom
    • A
    • Bb
    • B
    • C
    • Db
    • D
    • Eb
    • E
    • F
    • F#
    • G
    • Ab
  • Adicionar à lista

    0 comentários

    Ver todos os comentários

    Entre para oCifra Club PRO

    Tenha acesso a benefícios exclusivos no App e no Site

    • Chega de anúncios

    • Prioridade de compra em lançamentos

    • Mais recursos no app do Afinador

    • Atendimento Prioritário

    • Descontos nos produtos Cifra Club

    • Ajude a produzir mais conteúdo

    00:00 / 00:00

    Cifra Club Pro

    Aproveite o Cifra Club com benefícios exclusivos e sem anúncios
    Cifra Club Pro
    Aproveite o Cifra Club com benefícios exclusivos e sem anúncios
    OK