Cifra Club

Interessante

Ferrugem

Cifra: Principal (violão e guitarra)
Selo Cifra Club: esta cifra foi revisada para atender aos critérios oficiais da nossa Equipe de Qualidade.
tom: E
[Intro] A7M  F#m7  G#m7  C#m7  

[Tab - Intro e Primeira Parte]

   A7M
E|------------------------------------------|
B|-12-12-9----9-------9-12-9----9----9----9-|
G|---------11------11--------11--------11---|
D|------------------------------------------|
A|------------------------------------------|
E|------------------------------------------|

   F#m7
E|------------------------------------------|
B|-12-12-9----9-------9-12-9----9-----------|
G|---------11------11--------11-------------|
D|------------------------------------------|
A|------------------------------------------|
E|------------------------------------------|

   G#m7
E|------------------------------------------|
B|-12-12-9----9-------9-12-9----9----9----9-|
G|---------11------11--------11--------11---|
D|------------------------------------------|
A|------------------------------------------|
E|------------------------------------------|

   C#m7                 
E|-9----------------------------------------|
B|---12-9----9-------9-12-9----9------------|
G|--------11------11--------11--------------|
D|------------------------------------------|
A|------------------------------------------|
E|------------------------------------------|

[Primeira Parte]

    A7M
Eu nunca fui um cara interessante
       G#m7                   C#m7
Mas você me olhou, por um instante
   A7M                                   
E dentro dos seus olhos
                     G#m7   C#m7
Vi um diamante a se lapidar

[Pré-Refrão]

   A7M                         
Parece que o destino tinha
G#7(13-)            C#m7
Agendado o nosso encontro
              F#7
Eu não tava pronto
   A7M                     F#m7            
Você chegou e nem pediu licença
              Bm7(11)  E7(4/9)
Porque veio pra     ficar

[Refrão]

 A7M                                    
Por favor, não sai
                     F#m7
Da minha vida nunca mais
                           G#m7
Agora, se não for pedir demais
                               Bm7
Me ensina a ser o cara certo pra você
               E7(4/9)
Que o resto, o amor faz

 A7M                                    
Por favor, não sai
                     F#m7
Da minha vida nunca mais
                           G#m7
Agora, se não for pedir demais
                               Bm7
Me ensina a ser o cara certo pra você
               E7(4/9)  A7M
Que o resto, o amor    faz
       B7(4/9)   E7M  E7(4/9)
Que o resto, o amor  faz

[Primeira Parte]

    A7M
Eu nunca fui um cara interessante
       G#m7                   C#m7
Mas você me olhou, por um instante
   A7M                                   
E dentro dos seus olhos
                     G#m7(9)  C#m7
Vi um diamante a se lapidar

[Pré-Refrão]

   A7M                         
Parece que o destino tinha
G#7(13-)            C#m7
Agendado o nosso encontro
              F#7
Eu não tava pronto
   A7M                     F#m7            
Você chegou e nem pediu licença
              Bm7(11)  E7(4/9)
Porque veio pra     ficar

[Refrão]

 A7M                                    
Por favor, não sai
                     F#m7
Da minha vida nunca mais
                           G#m7
Agora, se não for pedir demais
                               Bm7
Me ensina a ser o cara certo pra você
               E7(4/9)
Que o resto, o amor faz

 A7M                                    
Por favor, não sai
                     F#m7
Da minha vida nunca mais
                           G#m7
Agora, se não for pedir demais
                               Bm7
Me ensina a ser o cara certo pra você
               E7(4/9)  A7M
Que o resto, o amor    faz


Por favor, não sai
                     F#m7
Da minha vida nunca mais
                           G#m7
Agora, se não for pedir demais
                               Bm7
Me ensina a ser o cara certo pra você
               E7(4/9)
Que o resto, o amor faz

 A7M                                    
Por favor, não sai
                     F#m7
Da minha vida nunca mais
                           G#m7
Agora, se não for pedir demais
                               Bm7
Me ensina a ser o cara certo pra você
               E7(4/9)  A7M
Que o resto, o amor    faz
       B7(4/9)   E7M  E7(4/9)
Que o resto, o amor  faz

[Primeira Parte]

    A7M
Eu nunca fui um cara interessante
       G#m7    C#m7
Mas você me olhou

( A7M  G#m7  C#m7 )

[Tab - Final - 2x]

   A7M
E|------------------------------------------|
B|-12-12-9----9-------9-12-9----9----9----9-|
G|---------11------11--------11--------11---|
D|------------------------------------------|
A|------------------------------------------|
E|------------------------------------------|

   G#m7                C#m7 
E|-9----------------------------------------|
B|---12-9----9-------9-12-9----9------------|
G|--------11------11--------11--------------|
D|------------------------------------------|
A|------------------------------------------|
E|------------------------------------------|

 A7M          G#m7  C#m7
Você me olhou

Outros vídeos desta música
    42.825 exibições
    • Simplificar cifra
      • ½ Tom
      • A
      • Bb
      • B
      • C
      • Db
      • D
      • Eb
      • E
      • F
      • F#
      • G
      • Ab
    • Adicionar à lista

    Afinação da cifra

    Afinador online

      0 comentários

      Ver todos os comentários

      Entre para o Cifra Club PRO

      Tenha acesso a benefícios exclusivos no App e no Site

      • Chega de anúncios

      • Badges exclusivas

      • Mais recursos no app do Afinador

      • Atendimento Prioritário

      • Aumente seu limite de lista

      • Ajude a produzir mais conteúdo

      Cifra Club Pro

      Aproveite o Cifra Club com benefícios exclusivos e sem anúncios
      Cifra Club Pro
      Aproveite o Cifra Club com benefícios exclusivos e sem anúncios
      OK