Cifra Club

Interessante

Ferrugem

Cifra: Simplificada (violão e guitarra)
Selo Cifra Club: esta cifra foi revisada para atender aos critérios oficiais da nossa Equipe de Qualidade.
tom: Ab (forma dos acordes no tom de E) Capotraste na 4ª casa
[Intro] F  Dm  Em  Am   

[Tab - Intro e Primeira Parte]

   F
E|------------------------------------------|
B|-8-8-5---5------5-8-5---5----5---5--------|
G|-------7------7-------7--------7----------|
D|------------------------------------------|
A|------------------------------------------|
E|------------------------------------------|

   Dm
E|------------------------------------------|
B|-8-8-5---5------5-8-5---5-----------------|
G|-------7------7-------7-------------------|
D|------------------------------------------|
A|------------------------------------------|
E|------------------------------------------|

   Em
E|------------------------------------------|
B|-8-8-5---5------5-8-5---5----5---5--------|
G|-------7------7-------7--------7----------|
D|------------------------------------------|
A|------------------------------------------|
E|------------------------------------------|

   Am
E|-5----------------------------------------|
B|---8-5---5------5-8-5---5-----------------|
G|-------7------7-------7-------------------|
D|------------------------------------------|
A|------------------------------------------|
E|------------------------------------------|

[Primeira Parte]

    F    
Eu nunca fui um cara interessante
       Em                     Am   
Mas você me olhou, por um instante
   F    
E dentro dos seus olhos
                     Em     Am   
Vi um diamante a se lapidar

[Pré-Refrão]

   F    
Parece que o destino tinha
E7                  Am   
Agendado o nosso encontro
              D7 
Eu não tava pronto
   F                       Dm  
Você chegou e nem pediu licença
              Gm   C7     
Porque veio pra ficar

[Refrão]

 F    
Por favor, não sai
                     Dm  
Da minha vida nunca mais
                           Em  
Agora, se não for pedir demais
                               Gm 
Me ensina a ser o cara certo pra você
               C7     
Que o resto, o amor faz

 F    
Por favor, não sai
                     Dm  
Da minha vida nunca mais
                           Em  
Agora, se não for pedir demais
                               Gm 
Me ensina a ser o cara certo pra você
               C7    F    
Que o resto, o amor faz
       G         C   C7     
Que o resto, o amor faz

[Primeira Parte]

    F    
Eu nunca fui um cara interessante
       Em                     Am   
Mas você me olhou, por um instante
   F    
E dentro dos seus olhos
                     Em  Am   
Vi um diamante a se lapidar

[Pré-Refrão]

   F    
Parece que o destino tinha
E7                  Am   
Agendado o nosso encontro
              D7 
Eu não tava pronto
   F                       Dm  
Você chegou e nem pediu licença
              Gm   C7     
Porque veio pra ficar

[Refrão]

 F    
Por favor, não sai
                     Dm  
Da minha vida nunca mais
                           Em  
Agora, se não for pedir demais
                               Gm 
Me ensina a ser o cara certo pra você
               C7     
Que o resto, o amor faz

 F    
Por favor, não sai
                     Dm  
Da minha vida nunca mais
                           Em  
Agora, se não for pedir demais
                               Gm 
Me ensina a ser o cara certo pra você
               C7    F    
Que o resto, o amor faz


Por favor, não sai
                     Dm  
Da minha vida nunca mais
                           Em  
Agora, se não for pedir demais
                               Gm 
Me ensina a ser o cara certo pra você
               C7     
Que o resto, o amor faz

 F    
Por favor, não sai
                     Dm  
Da minha vida nunca mais
                           Em  
Agora, se não for pedir demais
                               Gm 
Me ensina a ser o cara certo pra você
               C7    F    
Que o resto, o amor faz
       G         C   C7
Que o resto, o amor faz

[Primeira Parte]

    F    
Eu nunca fui um cara interessante
       Em      Am   
Mas você me olhou

( F  Em  Am )

[Tab - Final - 2x]

   F
E|------------------------------------------|
B|-8-8-5---5------5-8-5---5----5---5--------|
G|-------7------7-------7--------7----------|
D|------------------------------------------|
A|------------------------------------------|
E|------------------------------------------|

   Em                Dm
E|-5----------------------------------------|
B|---8-5---5-------5-8-5---5----------------|
G|-------7-------7-------7------------------|
D|------------------------------------------|
A|------------------------------------------|
E|------------------------------------------|

 F            Em  Am
Você me olhou   
    

Outros vídeos desta música
    7.537 exibições
      • ½ Tom
      • A
      • Bb
      • B
      • C
      • Db
      • D
      • Eb
      • E
      • F
      • F#
      • G
      • Ab
    • Adicionar à lista

    Afinação da cifra

    Afinador online

      0 comentários

      Ver todos os comentários

      Entre para o Cifra Club PRO

      Tenha acesso a benefícios exclusivos no App e no Site

      • Chega de anúncios

      • Badges exclusivas

      • Mais recursos no app do Afinador

      • Atendimento Prioritário

      • Aumente seu limite de lista

      • Ajude a produzir mais conteúdo

      Cifra Club Pro

      Aproveite o Cifra Club com benefícios exclusivos e sem anúncios
      Cifra Club Pro
      Aproveite o Cifra Club com benefícios exclusivos e sem anúncios
      OK