Cifra Club

No Waves

FIDLAR

Cifra: Principal (violão e guitarra)
tom: Bm
Chords:
E|-----------------------------------|
B|-----------------------------------|
G|--------------------------5--------|
D|--5-------9-------2-------5-(x16)--|
A|--5-(x16)-9-(x16)-2-(x16)-3--------|
E|--3-------7-------0----------------|

Main Riff:
E|-----------------------------------------------------------------|
B|--12--11--12--11--12--11--12--11--8--10--8--10--8--10--8--10-----|
G|-----------------------------------------------------------------|
D|-----------------------------------------------------------------|
A|-----------------------------------------------------------------|
E|-----------------------------------------------------------------|

E|--------------------------------------------------|
B|--5--8--5--8--5--8--5--8--3--5--3--5--3--5--3--5--|
G|--------------------------------------------------|
D|--------------------------------------------------|
A|--------------------------------------------------|
E|--------------------------------------------------|



1st Verse:
Chords & Bass

Bridge:
Chords, Main Riff & Bass

2nd Verse:
Bass x2
Chords & Bass x2

Bridge:
Chords, Main Riff & Bass

3rd Verse:
Chords & Bass

Bridge:
Chords, Main Riff & Bass

No último riff é tocado de uma forma um pouco diferente:

E|--------------------------------------------------------------|
B|--12--11--12--11--12--11--12--11--8--10--8--10--8--10--8--10--|
G|--------------------------------------------------------------|
D|--------------------------------------------------------------|
A|--------------------------------------------------------------|
E|--------------------------------------------------------------|

E|--------------------------------------------------|
B|--5--8--5--8--5--8--5--8--3--5--3--5--3--5--3--0--|
G|--------------------------------------------------|
D|--------------------------------------------------|
A|--------------------------------------------------|
E|--------------------------------------------------|
00:00 / 00:00
Outros vídeos desta música
Repetir
Outros vídeos desta música
Composição de FIDLAR
Colaboração e revisão:
  • Matheus Andrade
602 exibições
    • ½ Tom
    • Am
    • Bbm
    • Bm
    • Cm
    • C#m
    • Dm
    • Ebm
    • Em
    • Fm
    • F#m
    • Gm
    • G#m
  • Adicionar à lista

    0 comentários

    Ver todos os comentários

    Entre para oCifra Club PRO

    Tenha acesso a benefícios exclusivos no App e no Site

    • Chega de anúncios

    • Prioridade de compra em lançamentos

    • Mais recursos no app do Afinador

    • Atendimento Prioritário

    • Descontos nos produtos Cifra Club

    • Ajude a produzir mais conteúdo

    00:00 / 00:00

    Cifra Club Pro

    Aproveite o Cifra Club com benefícios exclusivos e sem anúncios
    Cifra Club Pro
    Aproveite o Cifra Club com benefícios exclusivos e sem anúncios
    OK