Cifra Club

Xique

Fiduma e Jeca

Cifra: Principal (violão e guitarra)
tom: G
[Intro]

E|-----------------------------------------------------|
B|-------3----------3----------------------------------|
G|-----0---0------0---0--------------------------------|
D|-4-5--------4-5--------5---------0h2--0--------------|
A|-----------------------------0h2--------3-2-0--------|
E|-----------------------------------------------------|

Am7                          D
Trancou faculdade, foi pro Paraná
 G                 Em7
Foi difícil de convencer 
Am7                  D
Sua vida era outro patamar
 G                  Em7
Só viagem e bistrô francês

Am7           D
Quem diria, que um dia
     G                D             Em7   D  
Ia descer do salto e por os pés no chão
    Am           D
Eu sabia que um dia
       G            C           D     
A simplicidade ia tocar seu coração

G          D                          Am7
Se você soubesse o tanto que cê fica top
           C                 G
De calça rasgada, toda sertaneja
         D                 Am7
Cabelo preso e sem "frescuriti"
           C                    G
Você fica "xique", ai cê fica "xique"
 
         D                            Am7
Se você soubesse o tanto que cê fica top
          C                   G
Jogando truco e tomando cerveja 
           D                    Am7
E quando rouba o meu chapéu e bota
                  C
Vixe, você fica "xique"
              G
Ai cê fica "xique"

[Solo]

E|-/10-10-10-10-10--/10-10-10-10-10--/10--/10---------------|
B|-/12-12-12-12-12--/12-12-12-12-12--/12--/12--8-10-8-------|
G|----------------------------------------------------9-----|
D|----------------------------------------------------------|
A|----------------------------------------------------------|
E|----------------------------------------------------------|

E|----------------------------------------------------------|
B|--------------------------------3----------3--------------|
G|------------------------------0---0------0---0------------|
D|--------5h7h5-5/7\5-7h5---4-5--------4-5--------5---------|
A|---5h7------------------------------------------------0h2-|
E|----------------------------------------------------------|

E|----------------------------------------------------------|
B|----------------------------------------------------------|
G|----------------------------------------------------------|
D|-0h2--0---------------------------------------------------|
A|--------3-2-0---------------------------------------------|
E|----------------------------------------------------------|

Am7                          D
Trancou faculdade, foi pro Paraná
 G                 Em7
Foi difícil de convencer 
Am7                  D
Sua vida era outro patamar
 G                  Em7
Só viagem e bistrô francês

Am7           D
Quem diria, que um dia
     G                D             Em7   D  
Ia descer do salto e por os pés no chão
    Am           D
Eu sabia que um dia
       G            C           D     
A simplicidade ia tocar seu coração

G          D                          Am7
Se você soubesse o tanto que cê fica top
           C                 G
De calça rasgada, toda sertaneja
         D                 Am7
Cabelo preso e sem "frescuriti"
           C                    G
Você fica "xique", ai cê fica "xique"
 
         D                            Am7
Se você soubesse o tanto que cê fica top
          C                   G
Jogando truco e tomando cerveja 
           D                    Am7
E quando rouba o meu chapéu e bota
                  C
Vixe, você fica "xique"
              G
Ai cê fica "xique"
00:00 / 00:00
Outros vídeos desta música
Repetir
Outros vídeos desta música
Composição de Leo Targino / Rodolfo Alessi / Ze Renato Mioto
Colaboração e revisão:
  • Cauan Fernando
  • Miguel Vetorasso
3.076 exibições
    • ½ Tom
    • A
    • Bb
    • B
    • C
    • Db
    • D
    • Eb
    • E
    • F
    • F#
    • G
    • Ab
  • Adicionar à lista

    0 comentários

    Ver todos os comentários

    Entre para oCifra Club PRO

    Tenha acesso a benefícios exclusivos no App e no Site

    • Chega de anúncios

    • Prioridade de compra em lançamentos

    • Mais recursos no app do Afinador

    • Atendimento Prioritário

    • Descontos nos produtos Cifra Club

    • Ajude a produzir mais conteúdo

    00:00 / 00:00

    Cifra Club Pro

    Aproveite o Cifra Club com benefícios exclusivos e sem anúncios
    Cifra Club Pro
    Aproveite o Cifra Club com benefícios exclusivos e sem anúncios
    OK