Cifra Club

Worth It

Fifth Harmony

Cifra: Principal (violão e guitarra)
Tom: Eb (forma dos acordes no tom de C) Capotraste na 3ª casa
Groove Intro e Refrão:

Parte 1

E|----------------------------------------------------|
B|-------------1--------------------------------------|
G|-2-2p1-2-2p1---2p1-2p1------------------------------|
D|-----------------------3----------------------------|
A|-0-----x-0---------x--------------------------------|
E|-------x-----------x--------------------------------|

Parte 2

E|----------------------------------------------------|
B|-------------1--------------------------------------|
G|-2-2p1-2-2p1---2p1-2--------------------------------|
D|----------------------------------------------------|
A|-0-----x-0---------x--------------------------------|
E|-------x-----------x--------------------------------|

Parte 3

E|----------------------------------------------------|
B|----------------------------------------------------|
G|----------------------------------------------------|
D|---2-2-1h2-3--2-2-1---------------------------------|
A|-------x----------x-3-2-----------------------------|
E|-0-----x---0------x---------------------------------|

Parte 4

E|----------------------------------------------------|
B|----------------------------------------------------|
G|---2p1-2-2p1-2p1------------------------------------|
D|-----------------3-2--------------------------------|
A|-------x-----------x--------------------------------|
E|-0-----x-0---------x--------------------------------|

Refrão:

Give it to me, I'm worth it
Baby I'm worth it
Uh huh, I'm worth it
Gimme, gimme I'm worth it

Give it to me, I'm worth it
Baby I'm worth it
Uh huh, I'm worth it
Gimme, gimme I'm worth it

Primeira Parte:

      A5
Okay,    I tell her bring it back

Like she left something?

Bring it bring it back 

Like she left something?
E5
   In the club with the lights off
                         G#5
What you actin' shy for?

                       A5
Come and show me that you're

Wit it, wit it, wit it, wit it

Stop playing now you know that I'm
E5
   Wit it, wit it, wit it 
               G#5
Wit it, wit it

What you actin' shy for?

A5
   Just gimme you, just gimme you

Just gimme you, that's all I wanna do
E5
   And if what they say is true
                                  G#5
If it's true, I won't get mad at you
A5
   I may talk a lot of stuff

Guaranteed, I can back it up
E5
   I think I'mma call your bluff

Hurry up, I'm walkin' out front

Pré-refrão:

F
  Uh huh see me in the spot like
 C
'Ooh I love your style
Am
   Uh huh show me what you got

    G4
Cuz I don't wanna waste my time

F
  Uh huh see me in the spot like
 C
'Ooh I love your style?
Am
   Uh huh show me what you got
     E7/G#
Now come and make it worth my while

Refrão:

Give it to me, I'm worth it
Baby I'm worth it
Uh huh I'm worth it
Gimme gimme I'm worth it

Give it to me, I'm worth it
Baby I'm worth it
Uh huh I'm worth it
Gimme gimme I'm worth it

Segunda Parte:

A5
   It's all on you, it's all on you

It's all on you, so what you wanna do?
E5
   And if you don't have a clue
                                   G#5
Not a clue, I'll tell you what to do

A5
   Come harder just because

I don't like it, like it too soft
E5
   I like it a little rough
                               G#5
Not too much, but maybe just enough

Pré-refrão:

F
  Uh huh see me in the spot like
 C
'Ooh I love your style
Am
   Uh huh show me what you got
    G4
Cuz I don't wanna waste my time

F
  Uh huh see me in the spot like
 C
'Ooh I love your style?
Am
   Uh huh show me what you got
     E7/G#
Now come and make it worth my while

Refrão:

Give it to me, I'm worth it
Baby I'm worth it
Uh huh I'm worth it
Gimme gimme I'm worth it

Give it to me, I'm worth it
Baby I'm worth it
Uh huh I'm worth it
Gimme gimme I'm worth it

Primeira Parte:

      A5
Okay,    I tell her bring it back

Like she left something?

Bring it bring it back 

Like she left something?
E5
   In the club with the lights off
                         G#5
What you actin' shy for?

                       A5
Come and show me that you're

Wit it, wit it, wit it, wit it

Stop playing now you know that I'm
E5
   Wit it, wit it, wit it 
               G#5
Wit it, wit it

What you actin' shy for?

Pré-refrão:

F
  Uh huh see me in the spot like
 C
'Ooh I love your style
Am
   Uh huh show me what you got

    G4
Cuz I don't wanna waste my time

F
  Uh huh see me in the spot like
 C
'Ooh I love your style?
Am
   Uh huh show me what you got
     E7/G#
Now come and make it worth my while

Refrão:

Give it to me, I'm worth it
Baby I'm worth it
Uh huh I'm worth it
Gimme gimme I'm worth it

Give it to me, I'm worth it
Baby I'm worth it
Uh huh I'm worth it
Gimme gimme I'm worth it

Give it to me, I'm worth it
exibições 62.724
Acordes para:

    0 comentários

    mostrar mais comentários

    Conseguiu tocar?

    8 tocaram 3 ainda não

    Grave um vídeo tocando Worth It e mande pra gente!

    00:00 / 00:00
    outros vídeos desta música
    repetir qualidade Automático
    Outros vídeos desta música
    00:00 / 00:00
    Automático
    Capítulos
    • Tocando a música
    • Dicas Iniciais / Equipamentos
    • Tocando Introdução e Primeiro Refrão
    • Riff - Parte 1 de 4
    • Riff - Parte 2 de 4
    • Riff - Parte 3 de 4
    • Riff - Parte 4 de 4
    • Acordes da Primeira Parte
    • Tocando a Primeira Parte
    • Ritmo da Primeira Parte
    • Acordes do Pré-Refrão
    • Tocando o Pré-Refrão
    • Encerramento
    • Ficha Técnica
    OK