Cifra Club

Livre e Triste

Filipe Ret

Cifra: Principal (violão e guitarra)
tom: E
[Intro]

Parte 1

E|----------4----------------------------|
B|--------5---5---5h7p5-----------0------|
G|--------------4-------6\----------4----|
D|---4/6------------------------4-----4--|
A|----------------------------2----------|
E|-0-------------------------------------|

Parte 2

E|---------------------------------------|
B|---0----------4-------0----------0-----|
G|------------------------2----------2---|
D|-4----------4-------2-----2----2-----2-|
A|------2-4/6-------0--------------------|
E|---------------------------------------|

Parte 3
                              E
E|----------------------------0----------|
B|-0-------5------------------0----------|
G|---2-4/6---6\4-2------------1----------|
D|-----------------4-2--------2----------|
A|---------------------4-2----2----------|
E|----------------------------0----------|

( E  B  A9 )

E          B
  Ôh uh ôh ôh
                A9
Uh, ôh, ôh, ôh, ôh

[Primeira Parte]

     E
Amanhã eu não acordo cedo
                B
Vou sair de vermelho

Seduzir o mundo inteiro
                 A9
Não me aponte o dedo

Só eu sei o meu valor

Ninguém me mete medo, eu já conheço a dor
   E
A gente não receia
                            B
Se alimenta com a inveja alheia

Não tem medo da sua cara feia
 A9
Sei que não nasci pra ser freira, nem tô de bobeira

Para de ficar me olhando e chega

[Segunda Parte]

C#m7                      B9
    O bonde vai sair pesado

Decote brilho e batom
A9
   As amigas tão do meu lado

Drink envenenado e tão querendo emoção
  C#m7
Quando a gente chega gatinho tonteia
 B9
Se se aproximar vai cair na teia
 A9
Me manda uma letra, vem logo e me beija

[Refrão]

                                   C#m7  G#m
Mas se eu gostar vai ter que me levar
                   F#m      A9
Mais uma vez to aqui sem você
             C#m7  G#m
Livre e triste
                   F#m      A9
Mais uma vez to aqui sem você

Livre e triste

C#m7           G#m
Até quando eu vou ter que fingir
  F#m            A9
Que eu tô feliz sem você do meu lado aqui
  C#m7           G#m
E até quando eu vou ter que fingir
  F#m            A9
Que eu tô feliz sem você do meu lado aqui

[Terceira Parte]

C#m                    B9    
    Vou tentar ser otimista
                  A9
Toda lágrima é egoísta

Mas se hoje tudo der certo
          C#m           B9
Vai dar amor, vai dar amor
          A9
Vai dar amor, vai dar amor

( C#m7 )

[Refrão]

G#m                    F#m      A9
    Mais uma vez tô aqui sem você
             C#m7  G#m
Livre e triste
                  F#m      A9
Mas uma vez to aqui sem você
          C#m7 
Livre e triste

[Solo] G#m  F#m  A9
       C#m7  G#m  F#m  A9 

[Final]

Parte 1

E|----------4----------------------------|
B|--------5---5---5h7p5-----------0------|
G|--------------4-------6\----------4----|
D|---4/6------------------------4-----4--|
A|----------------------------2----------|
E|-0-------------------------------------|

Parte 2

E|---------------------------------------|
B|---0----------4-------0----------0-----|
G|------------------------2----------2---|
D|-4----------4-------2-----2----2-----2-|
A|------2-4/6-------0--------------------|
E|---------------------------------------|

Parte 3
                              E
E|----------------------------0----------|
B|-0-------5------------------0----------|
G|---2-4/6---6\4-2------------1----------|
D|-----------------4-2--------2----------|
A|---------------------4-2----2----------|
E|----------------------------0----------|
00:00 / 00:00
Outros vídeos desta música
Repetir
Outros vídeos desta música
Composição de Filipe RET
Colaboração e revisão:
133.713 exibições
    • ½ Tom
    • A
    • Bb
    • B
    • C
    • Db
    • D
    • Eb
    • E
    • F
    • F#
    • G
    • Ab
  • Adicionar à lista

    0 comentários

    Ver todos os comentários

    Entre para oCifra Club PRO

    Tenha acesso a benefícios exclusivos no App e no Site

    • Chega de anúncios

    • Prioridade de compra em lançamentos

    • Mais recursos no app do Afinador

    • Atendimento Prioritário

    • Descontos nos produtos Cifra Club

    • Ajude a produzir mais conteúdo

    00:00 / 00:00

    Cifra Club Pro

    Aproveite o Cifra Club com benefícios exclusivos e sem anúncios
    Cifra Club Pro
    Aproveite o Cifra Club com benefícios exclusivos e sem anúncios
    OK