Cifra Club

Aprenda

It's Gonna Kill Me

Filter

Cifra: Principal (violão e guitarra)
tom: Bb
Aew galera.... essa eh a music q toca no começo do filme "3000 milhas para o inferno"... abraço


E|---------------------------------- 
B|----------------------------------
G|-----5-5-5-5/7--------------------
D|-0-0-5-5-5-5/7-3-3-3-3-6-6-6-6/5--   (Introdução)
A|-0-0-3-3-3-3/5-3-3-3-3-6-6-6-6/5--   
D|-0-0-----------3-3-3-3-6-6-6-6/5--

E|----------------------------------
B|----------------------------------
G|----------------------------------
D|----------------------------------   
A|------3-3-3-3/5------------------- 
D|-0-0------------3-3-3-3-6-6-6-6/5-

E|----------------------------------
B|----------------------------------
G|-5-5-5/7-7-7/5----------------------   (REFRÃO)
D|-5-5-5/7-7-7/5-0-0-0-0--------------
A|-3-3-3/5-5-5/3-0-0-0-0--------------
D|-3-3-3/5-5-5/3-0-0-0-0--------------
Composição de Geno Lenardo / Richard Patrick
Colaboração e revisão:
  • Rafael Costa
717 exibições
    • ½ Tom
    • A
    • Bb
    • B
    • C
    • Db
    • D
    • Eb
    • E
    • F
    • F#
    • G
    • Ab
  • Adicionar à lista

    0 comentários

    Ver todos os comentários

    Conseguiu tocar?

    0 Tocaram 0 Ainda não

    Grave um vídeo tocando It's Gonna Kill Me e nos envie!

    00:00 / 00:00
    outros vídeos desta música
    repetir qualidade Automático
    Outros vídeos desta música
    00:00 / 00:00
    Automático

    Cifra Club Pro

    Aproveite o Cifra Club com benefícios exclusivos e sem anúncios
    Cifra Club Pro
    Aproveite o Cifra Club com benefícios exclusivos e sem anúncios
    OK