Cifra Club

Aprenda

A Man Alone

Finch

Cifra: Principal (violão e guitarra)
tom: E
Tuning: Drop Db (Db,Ab,Db,Gb,B,Eb) Low to High

Intro
Eb|-----------------------------------------------------------------------------------------|
Bb|-----------------------------------------------------------------------------------------|
Gb|----------------------7--5----------------------5--7-------------------------------------|
Db|-----8--5--7--8--5-5--7--5--8--8--5--7--8--5-5--5--7--8--7-0-7-0-7-0-7-0-7-0-7-0-7-0-7-0-|
Ab|-----8--5--7--8--5-5--5--3--8--8--5--7--8--5-5--3--5--8--7-0-7-0-7-0-7-0-7-0-7-0-7-0-7-0-|
Db|-----8--5--7--8--5-5--------8--8--5--7--8--5-5--------8--7-0-7-0-7-0-7-0-7-0-7-0-7-0-7-0-|

Eb|----------------------------------------------------------------------------------|
Bb|----------------------------------------------------------------------------------|
Gb|----------------------7--5----------------------5--7----------9-------9-----------|
Db|-----8--5--7--8--5-5--7--5--8--8--5--7--8--5-5--5--7--8--7-7------7-7--------8-8\-|
Ab|-----8--5--7--8--5-5--5--3--8--8--5--7--8--5-5--3--5--8--7-7------7-7--------8-8\-|
Db|-----8--5--7--8--5-5--------8--8--5--7--8--5-5--------8--7-7------7-7--------8-8\-|

Verse 1                                                         
Eb|------------------------------------------------------------------------------------|
Bb|---13---------13---------13--------10-10-10-10-10-10-10-10----6-6-6----6--6--6------|
Gb|---12---------12---------12---------9--9--9--9--9--9--9--9----8-8-8--8--8--8--8-----|
Db|---10--8-7----10--8-8----10--8-7----7--7--7--7--7--7--7--7--------------------------|
Ab|---10--8-5----10--8-5----10--8-5----7--7--7--7--7--7--7--7--------------------------|
Db|---10--8-5----10--8-5----10--8-5----7--7--7--7--7--7--7--7--------------------------|
                                                                
Eb|------------------------------------------------------------------------------------|
Bb|---13---------13---------13--------10-10-10-10-10-10-10-10--------------------------|
Gb|---12---------12---------12---------9--9--9--9--9--9--9--9---7-10--12--14-----------|
Db|---10--8-7----10--8-8----10--8-7----7--7--7--7--7--7--7--7---x--x---x---x-----------|
Ab|---10--8-5----10--8-5----10--8-5----7--7--7--7--7--7--7--7---5--8--10--12-----------|
Db|---10--8-5----10--8-5----10--8-5----7--7--7--7--7--7--7--7--------------------------|

Chorus 1
Eb|-----------------------------------------------------------------------------------|
Bb|-----------------------------------------------------------------------------------|
Gb|----------------------7--5----------------------5--7----------------------5-7------|
Db|-----8--5--7--8--5-5--7--5--8--8--5--7--8--5-5--5--7--8--7-0-7-0-7-0-7-0--5-7-8-7--|
Ab|-----8--5--7--8--5-5--5--3--8--8--5--7--8--5-5--3--5--8--7-0-7-0-7-0-7-0--3-5-8-7--|
Db|-----8--5--7--8--5-5--------8--8--5--7--8--5-5--------8--7-0-7-0-7-0-7-0------8-7--|

Eb|----------------------------------------------------------------------------------|
Bb|----------------------------------------------------------------------------------|
Gb|----------------------7--5----------------------5--7----------9-------9-----------|
Db|-----8--5--7--8--5-5--7--5--8--8--5--7--8--5-5--5--7--8--7-7------7-7--------8-8\-|
Ab|-----8--5--7--8--5-5--5--3--8--8--5--7--8--5-5--3--5--8--7-7------7-7--------8-8\-|
Db|-----8--5--7--8--5-5--------8--8--5--7--8--5-5--------8--7-7------7-7--------8-8\-|
 
Verse 2                                                         
Eb|------------------------------------------------------------------------------------|
Bb|---13---------13---------13--------10-10-10-10-10-10-10-10----6-6-6----6--6--6------|
Gb|---12---------12---------12---------9--9--9--9--9--9--9--9----8-8-8--8--8--8--8-----|
Db|---10--8-7----10--8-8----10--8-7----7--7--7--7--7--7--7--7--------------------------|
Ab|---10--8-5----10--8-5----10--8-5----7--7--7--7--7--7--7--7--------------------------|
Db|---10--8-5----10--8-5----10--8-5----7--7--7--7--7--7--7--7--------------------------|

Eb|--------------------------------------------------------------------|
Bb|---13---------13---------13-----------------------------------------|
Gb|---12---------12---------12-------6/9-10-6/9-10-6/9--7--10-12--14---|
Db|---10--8-7----10--8-8----10--8-7---------------------x--x---x---x---|
Ab|---10--8-5----10--8-5----10--8-5---------------------5--8--10--12---|
Db|---10--8-5----10--8-5----10--8-5------------------------------------|

Chorus 2
Eb|-----------------------------------------------------------------------------------------|
Bb|-----------------------------------------------------------------------------------------|
Gb|----------------------7--5----------------------5--7-------------------------------------|
Db|-----8--5--7--8--5-5--7--5--8--8--5--7--8--5-5--5--7--8--7-0-7-0-7-0-7-0-7-0-7-0-7-0-7-0-|
Ab|-----8--5--7--8--5-5--5--3--8--8--5--7--8--5-5--3--5--8--7-0-7-0-7-0-7-0-7-0-7-0-7-0-7-0-|
Db|-----8--5--7--8--5-5--------8--8--5--7--8--5-5--------8--7-0-7-0-7-0-7-0-7-0-7-0-7-0-7-0-|

Eb|-----------------------------------------------------------------------------------------|
Bb|-----------------------------------------------------------------------------------------|
Gb|----------------------7--5----------------------5--7------------------------------9-9-9--|
Db|-----8--5--7--8--5-5--7--5--8--8--5--7--8--5-5--5--7--8--7-0-7-0-7-0-7-0-7-0-7-0---------|
Ab|-----8--5--7--8--5-5--5--3--8--8--5--7--8--5-5--3--5--8--7-0-7-0-7-0-7-0-7-0-7-0---------|
Db|-----8--5--7--8--5-5--------8--8--5--7--8--5-5--------8--7-0-7-0-7-0-7-0-7-0-7-0---------|

Eb|-----------------------------------------------------------------------------------------|
Bb|-----------------------------------------------------------------------------------------|
Gb|----------------------7--5----------------------5--7-------------------------------------|
Db|-----8--5--7--8--5-5--7--5--8--8--5--7--8--5-5--5--7--8--7-0-7-0-7-0-7-0-7-0-7-0-7-0-7-0-|  X2 
Ab|-----8--5--7--8--5-5--5--3--8--8--5--7--8--5-5--3--5--8--7-0-7-0-7-0-7-0-7-0-7-0-7-0-7-0-|     
Db|-----8--5--7--8--5-5--------8--8--5--7--8--5-5--------8--7-0-7-0-7-0-7-0-7-0-7-0-7-0-7-0-|     

   

Bridge 
Eb|---------------|                              ---------------------------------|
Bb|---------------|                              ---------------------------------|
Gb|---------------|                              ---------------------------------|
Db|----7--8--5----|                              -7-0-7-0-7-0-7-0-7-0-7-0-5-0-8---| X4  
Ab|--5--5---------|                              -7-0-7-0-7-0-7-0-7-0-7-0-5-0-8---|     
Db|---------------|                              -7-0-7-0-7-0-7-0-7-0-7-0-5-0-8---|     
                                                 

| /  slide up
| \  slide down
| h  hammer-on
| p  pull-off
| ~  vibrato
| +  harmonic
| x  Mute note
Composição de Finch
Colaboração e revisão:
  • Paulo Junior
1.190 exibições
    • ½ Tom
    • A
    • Bb
    • B
    • C
    • Db
    • D
    • Eb
    • E
    • F
    • F#
    • G
    • Ab
  • Adicionar à lista

    0 comentários

    Ver todos os comentários
    00:00 / 00:00
    outros vídeos desta música
    repetir qualidade Automático
    Outros vídeos desta música
    00:00 / 00:00
    Automático

    Cifra Club Pro

    Aproveite o Cifra Club com benefícios exclusivos e sem anúncios
    Cifra Club Pro
    Aproveite o Cifra Club com benefícios exclusivos e sem anúncios
    OK