Cifra Club

Aprenda

Awake

Finch

Cifra: Principal (violão e guitarra)
tom: D
Intro

(Guitar 1) these are all harmonics 
 - play this four times then pause and guitar two comes in
E|--7-------------------------------------------------------------------------------
B|-----7-----7---------7--------7---------------------------------------------------
G|--------7-----7---------7--------7------------------------------------------------
D|------------------7---------7--------7--------------------------------------------
A|----------------------------------------------------------------------------------
D|----------------------------------------------------------------------------------

(Guitar 2)
 - hold out the last cord on the ninth fret then it goes into verse
E|-----------------------------------------------------------------------------------
B|-----------------------------------------------------------------------------------
G|-----------------------------------------------------------------------------------
D|-9-9-9-9-0-0-0-0--0-0-0-0-0-0-0-0-0-0-0-0---------9--------------------------------
A|-9-9-9-9-0-0-0-0--0-0-0-0-0-0-0-0-0-0-0-0---------9--------------------------------
D|-9-9-9-9-0-0-0-0--0-0-0-0-0-0-0-0-0-0-0-0---------9--------------------------------

Verse
(Guitar 1)
 - These are also harmonics, repeated     *One devotion�
E|-----------------------------------------------------------------------------------
B|---------------5------------------5------------------------------------------------
G|--7--------7-----5--7--------7-----5--7--------------------------------------------
D|-----------------------------------------------------------------------------------
A|-----------------------------------------------------------------------------------
D|-----------------------------------------------------------------------------------

(Guitar 2)
* Silence broken�
E|-----------------------------------------------------------------------------------
B|-----------------------------------------------------------------------------------
G|--------------------------9--------------------------------------------------------
D|--------11--(0-0-0-0)-------0------------------------------------------------------
A|-----9------(0-0-0-0)---------0----------------------------------------------------
D|--9---------(0-0-0-0)--------------------------------------------------------------

Chorus
(Guitar 1)
* No more feeling�..
E|-----------------------------------------------------------------------------------
B|-----------------------------------------------------------------------------------
G|-----------------------------------------------------------------------------------
D|--4-4-4-4-5-5-5-5-0-0-0-0-0-0-0-0--------------------------------------------------
A|--4-4-4-4-5-5-5-5-0-0-0-0-0-0-0-0--------------------------------------------------
D|--4-4-4-4-5-5-5-5-0-0-0-0-0-0-0-0--------------------------------------------------



(Guitar 2)
E|-----------------------------------------------------------------------------------
B|-----------------------------------------------------------------------------------
G|---------------------11-11-----11-11---------------------11-11-12--12--9-9--------
D|-4-4-4-4-5-5-5-5-0-0-x--x--0-0-x--x--4-4-4-4-5-5-5-5-0-0-x--x--x---x---x-x--------
A|-4-4-4-4-5-5-5-5-0-0-9--9--0-0-9--9--4-4-4-4-5-5-5-5-0-0-9--9--10--10--7-7--------
D|-4-4-4-4-5-5-5-5-0-0-------0-0-------4-4-4-4-5-5-5-5-0-0--------------------------

-Back to intro

-Verse 2 is same as verse 1

Chorus (part right before bridge)
(Both Guitars)
*But now I�m awake�.
E|----------------------------------------------------------------------------------
B|----------------------------------------------------------------------------------
G|----------------------------9-------9--------9--------9-------------------------
D|--4----------5----------------0-------0--------0--------0----------------------
A|--4----------5-------------------------------------------------------------------
D|--4----------5----------0-------0--------0--------0----------------------------

Bridge
(Guitar 1) Clean
E|-----------------------------------------------------------------------------------
B|--4--2--0------------4--2--0------------4--2--0------------------------------------
G|------------4--2--0------------4--2--0------------4--2--0--4--2--0--4--2--0--------
D|-----------------------------------------------------------------------------------
A|-----------------------------------------------------------------------------------
D|-----------------------------------------------------------------------------------

(Guitar 2) Distortion
-       Comes in later (moaning)
E|-----------------------------------------------------------------------------------
B|-----------------------------------------------------------------------------------
G|----------------------9------------------------------------------------------------
D|------------11----------0--------------------------------------------------------
A|-----9----------------------0-----------------------------------------------------
D|--9-----9---------0---------------------------------------------------------------

Bridge (when it breaks into it)
(Guitar 1)
*Awake! She prays the silence will stop�
E|-----------------------------------------------------------------------------------
B|-----------------------------------------------------------------------------------
G|-----------------------------------------------------------------------------------
D|--9-9-9-9--9-9-9-9--0-0-0-0--0-0-0-0-----------------------------------------------
A|--9-9-9-9--9-9-9-9--0-0-0-0--0-0-0-0-----------------------------------------------
D|--9-9-9-9--9-9-9-9--0-0-0-0--0-0-0-0-----------------------------------------------

Chorus to end the song
Composição de Finch / Nate Barcalow
Colaboração e revisão:
  • Mauricio Lopes
534 exibições
    • ½ Tom
    • A
    • Bb
    • B
    • C
    • Db
    • D
    • Eb
    • E
    • F
    • F#
    • G
    • Ab
  • Adicionar à lista

    0 comentários

    Ver todos os comentários
    00:00 / 00:00
    outros vídeos desta música
    repetir qualidade Automático
    Outros vídeos desta música
    00:00 / 00:00
    Automático

    Cifra Club Pro

    Aproveite o Cifra Club com benefícios exclusivos e sem anúncios
    Cifra Club Pro
    Aproveite o Cifra Club com benefícios exclusivos e sem anúncios
    OK