Cifra Club

Aprenda

Firefiles

Finch

Cifra: Principal (violão e guitarra)
tom: F#
Tuning: Drop Db (Db,Ab,Db,Gb,B,Eb) Low to High

Intro
eb|---------------------------------------------------------------------------|
Bb|-10-10-10-10-10-10-10-10-10-10-10-10---------------------------------------|
Gb|-------------------------------------11-11-11-11-11-11-11-11-11-11-11-11---| 
Db|---------------------------------------------------------------------------| 
Ab|---------------------------------------------------------------------------| 
Db|---------------------------------------------------------------------------| 

eb|---------------------------------------------------------------------------|
Bb|---------------------------------------------------------------------------|
Gb|--------7-7-7-------------5-5-5-------------7-7-7-------------5-5-5--------| x2
Db|--0-0-0-7-7-7-3-3-3-2-2-2-5-5-5-1-1-1-0-0-0-7-7-7-3-3-3-2-2-2-5-5-5-1-1-1--|
Ab|--0-0-0-5-5-5-3-3-3-2-2-2-3-3-3-1-1-1-0-0-0-5-5-5-3-3-3-2-2-2-3-3-3-1-1-1--|
Db|--0-0-0-------3-3-3-2-2-2-------1-1-1-0-0-0-------3-3-3-2-2-2-------1-1-1--|

Verses
eb|-----------------------------------------------------------------------------------------|
Bb|-----------------------------------------------------------------------------------------|
Gb|-------------------------5-5-5-8-8-8-7-7-7-7-7-7-------------5-5-5-8-8-8-7-7-7-7-7-7-----|
Db|-0-0-0-0-0-0-3-3-3-2-2-2-x-x-x-x-x-x-x-x-x-x-x-x-3-3-3-2-2-2-x-x-x-x-x-x-x-x-x-x-x-x-----|
Ab|-0-0-0-0-0-0-3-3-3-2-2-2-3-3-3-6-6-6-5-5-5-5-5-5-3-3-3-2-2-2-3-3-3-6-6-6-5-5-5-5-5-5-----|
Db|-0-0-0-0-0-0-3-3-3-2-2-2-------------------------3-3-3-2-2-2-----------------------------|
    .......................                         ...........(pm)
eb|--------------------------------------------------------------|
Bb|--------------------------------------------------------------|
Gb|-------------5-5-5-8-8-8-7-7-7-7-7-7-------------5-5-5-8-8-8--|
Db|-3-3-3-2-2-2-x-x-x-x-x-x-x-x-x-x-x-x-3-3-3-2-2-2-x-x-x-x-x-x--|
Ab|-3-3-3-2-2-2-3-3-3-6-6-6-5-5-5-5-5-5-3-3-3-2-2-2-3-3-3-6-6-6--|
Db|-3-3-3-2-2-2-------------------------3-3-3-2-2-2--------------|
    ...........                         ...........(pm)
eb|-----------------------------------------------------------------------|
Bb|-----------------------------------------------------------------------|
Gb|-------7-7-7-------------5-5-5-------------7-7-7-------------5-5-5-----|
Db|-0-0-0-x-x-x-3-3-3-2-2-2-x-x-x-1-1-1-0-0-0-x-x-x-3-3-3-2-2-2-x-x-x-----|
Ab|-0-0-0-5-5-5-3-3-3-2-2-2-3-3-3-1-1-1-0-0-0-5-5-5-3-3-3-2-2-2-3-3-3-----|
Db|-0-0-0-------3-3-3-2-2-2-------1-1-1-0-0-0-------3-3-3-2-2-2-----------|
    .....       ...........       ...........       ...........(pm)
eb|------------------------------------------------------------------------------|
Bb|------------------------------------------------------------------------------|
Gb|-------------7-7-7-------------5-5-5-------------7-7-7-------------5-5-5------|
Db|-1-1-1-0-0-0-x-x-x-3-3-3-2-2-2-x-x-x-1-1-1-0-0-0-x-x-x-3-3-3-2-2-2-x-x-x-2----|
Ab|-1-1-1-0-0-0-5-5-5-3-3-3-2-2-2-3-3-3-1-1-1-0-0-0-5-5-5-3-3-3-2-2-2-3-3-3-2----|
Db|-1-1-1-0-0-0-------3-3-3-2-2-2-------1-1-1-0-0-0-------3-3-3-2-2-2-------2----|
    ...........       ...........       ..........        ...........(pm)

Pre-Chorus
eb|---------------------------------------------|
Bb|---------------------------------------------| 
Gb|------10-------10-------10--------8--8--(8)--|  
Db|-1--1--x--1--1--x--1--1--x--1--1--8--8--(8)--|  
Ab|-1--1--8--1--1--8--1--1--8--1--1--6--6--(6)--| 
Db|-1--1-----1--1-----1--1-----1--1-------------|

Chorus
eb|----------------------------------------------------------------------|
Bb|-------------------------------------------------------10-10----10-10-| 
Gb|-----------5--5-5----------------------------5--5-5----10-10----10-10-|
Db|-0---------5--5-5-10-10-10-7--7-7--0---------5--5-5-10-10-10-10-10-10-|
Ab|-0-5-0-5h7-3--3-3-8--8--8--5--5-5--0-5-0-5h7-3--3-3--8--8-8--8--8--8--|
Db|-0----------------8--8--8--5--5-5--0-----------------8--8-8--8--8--8--|

Bridge
eb|----------------------------------------------------------|
Bb|----------------------------------------------------------| 
Gb|------2-----2-----2-------2-----2-----2-------2--------2--| 
Db|----0-----0-----0------0------0-----0------0--------0-----| 
Ab|--2-----2-----2-----3-------2-----2-----1--------3--------| 
Db|----------------------------------------------------------|

eb|---------------------------------------------------------------------------------|
Bb|---------------------------------------------------------------------------------|  
Gb|-----------------------------------------------------------------------2-----2---| 
Db|---------------------------------------------------------------------0-----0-----| 
Ab|-2-2-2-0-2-0-2-2-2-0-2-0-2-2-2-0-2-0-3-3-3-2-2-2-0-2-0-2-2-2-0-2-0-1-----3-------| 
Db|---------------------------------------------------------------------------------|

eb|---------------------------------------------------------------------------------|
Bb|---------------------------------------------------------------------------------|
Gb|-------------------------------------------------------------------3-3-3---------|   
Db|-------------------------------------------------------------------3-3-3-3-3-3---| 
Ab|-2-2-2-0-2-0-2-2-2-0-2-0-2-2-2-0-2-0-3-3-3-2-2-2-0-2-0-2-2-2-0-2-0-1-1-1-3-3-3---| 
Db|-------------------------------------------------------------------------3-3-3---|

eb|--------|                                          
Bb|--------| 
Gb|-5---6--| 
Db|-5---5--| 
Ab|-3---4--| 
Db|--------|

eb|------------------------|
Bb|------------------------| 
Gb|-----5-----------5------|    
Db|--0--5--3--2--0--3--3---| 
Ab|--0--3--3--2--0--3--3---| 
Db|--0-----3--2--0-----3---|
                       

| /  slide up
| \  slide down
| h  hammer-on
| p  pull-off
| ~  vibrato
| +  harmonic
| x  Mute note
|...(pm) Palm Mute
Colaboração e revisão:
  • Paulo Junior
1.045 exibições
    • ½ Tom
    • A
    • Bb
    • B
    • C
    • Db
    • D
    • Eb
    • E
    • F
    • F#
    • G
    • Ab
  • Adicionar à lista

    0 comentários

    Ver todos os comentários
    00:00 / 00:00
    outros vídeos desta música
    repetir qualidade Automático
    Outros vídeos desta música
    00:00 / 00:00
    Automático

    Cifra Club Pro

    Aproveite o Cifra Club com benefícios exclusivos e sem anúncios
    Cifra Club Pro
    Aproveite o Cifra Club com benefícios exclusivos e sem anúncios
    OK