Cifra Club

Aprenda

New Beginings

Finch

Cifra: Principal (violão e guitarra)
tom: C
                                           
D#||---------------------------------------|
A#||---------------------------------------|
F#||*--------------------------------------|
C#||*--8--------8----8------------8--------|
G#||---8--------8----8------------8--------|
C#||---8--------8----8------------8--------|


                                       3x
---------------------------------------||
---------------------------------------||
--------------------------------------*||
--0--------0----0------------0--------*||
--0--------0----0------------0---------||
--0--------0----0------------0---------||


                                                    
---------------------------------------------------|
---------------------------------------------------|
*--------------------------------------------------|
*--3--3--3--3--3--3--3--3--3--3--3--3--3--3--3--3--|
---3--3--3--3--3--3--3--3--3--3--3--3--3--3--3--3--|
---3--3--3--3--3--3--3--3--3--3--3--3--3--3--3--3--|


                                                   
--------------------------------------------------|
--------------------------------------------------|
--------------------------------------------------|
--3--3--3--3--3--3--3--3--3--3--3--3--3--3--3--3--|
--3--3--3--3--3--3--3--3--3--3--3--3--3--3--3--3--|
--3--3--3--3--3--3--3--3--3--3--3--3--3--3--3--3--|


                                                   
--------------------------------------------------|
--------------------------------------------------|
--------------------------------------------------|
--0--0--0--0--0--0--0--0--0--0--0--0--0--0--0--0--|
--0--0--0--0--0--0--0--0--0--0--0--0--0--0--0--0--|
--0--0--0--0--0--0--0--0--0--0--0--0--0--0--0--0--|


                                                     
---------------------------------------------------||
---------------------------------------------------||
--------------------------------------------------*||
--0--0--0--0--0--0--0--0--0--0--0--0--0--0--0--0--*||
--0--0--0--0--0--0--0--0--0--0--0--0--0--0--0--0---||
--0--0--0--0--0--0--0--0--0--0--0--0--0--0--0--0---||


                                                   
--------------------------------------------------|
--------------------------------------------------|
--------------------------------------------------|
--0--0--0--0--0--0--0--0--0--0--0--0--0--0--0--0--|
--0--0--0--0--0--0--0--0--0--0--0--0--0--0--0--0--|
--0--0--0--0--0--0--0--0--0--0--0--0--0--0--0--0--|


                                         
|---------------------------------------|
|---------------------------------------|
|*--------------------------------------|
|*--8--------8----8------------8--------|
|---8--------8----8------------8--------|
|---8--------8----8------------8--------|


                                       3x
---------------------------------------||
---------------------------------------||
--------------------------------------*||
--0--------0----0------------0--------*||
--0--------0----0------------0---------||
--0--------0----0------------0---------||


                                                    
---------------------------------------------------|
---------------------------------------------------|
*--------------------------------------------------|
*--3--3--3--3--3--3--3--3--3--3--3--3--3--3--3--3--|
---3--3--3--3--3--3--3--3--3--3--3--3--3--3--3--3--|
---3--3--3--3--3--3--3--3--3--3--3--3--3--3--3--3--|


                                                   
--------------------------------------------------|
--------------------------------------------------|
--------------------------------------------------|
--3--3--3--3--3--3--3--3--3--3--3--3--3--3--3--3--|
--3--3--3--3--3--3--3--3--3--3--3--3--3--3--3--3--|
--3--3--3--3--3--3--3--3--3--3--3--3--3--3--3--3--|


                                                   
--------------------------------------------------|
--------------------------------------------------|
--------------------------------------------------|
--0--0--0--0--0--0--0--0--0--0--0--0--0--0--0--0--|
--0--0--0--0--0--0--0--0--0--0--0--0--0--0--0--0--|
--0--0--0--0--0--0--0--0--0--0--0--0--0--0--0--0--|


                                                     
---------------------------------------------------||
---------------------------------------------------||
--------------------------------------------------*||
--0--0--0--0--0--0--0--0--0--0--0--0--0--0--0--0--*||
--0--0--0--0--0--0--0--0--0--0--0--0--0--0--0--0---||
--0--0--0--0--0--0--0--0--0--0--0--0--0--0--0--0---||


                                                   
--------------------------------------------------|
--------------------------------------------------|
--------------------------------------------------|
--0--0--0--0--0--0--0--0--0--0--0--0--0--0--0--0--|
--0--0--0--0--0--0--0--0--0--0--0--0--0--0--0--0--|
--0--0--0--0--0--0--0--0--0--0--0--0--0--0--0--0--|


                                         
|---------------------------------------|
|---------------------------------------|
|*--------------------------------------|
|*--8--------8----8------------8--------|
|---8--------8----8------------8--------|
|---8--------8----8------------8--------|


                                       7x
---------------------------------------||
---------------------------------------||
--------------------------------------*||
--0--------0----0------------0--------*||
--0--------0----0------------0---------||
--0--------0----0------------0---------||


                                          
-----------------------------------------|
-----------------------------------------|
*----------------------------------------|
*--5------5------5----5------5------5----|
---5------5------5----5------5------5----|
---5------5------5----5------5------5----|


                                         
----------------------------------------|
----------------------------------------|
----------------------------------------|
--8------8------8----8------8------8----|
--8------8------8----8------8------8----|
--8------8------8----8------8------8----|


                                                   
--------------------------------------------------|
--------------------------------------------------|
--------------------------------------------------|
--3--3--3--3--3--3--3--3--3--3--3--3--3--3--3--3--|
--3--3--3--3--3--3--3--3--3--3--3--3--3--3--3--3--|
--3--3--3--3--3--3--3--3--3--3--3--3--3--3--3--3--|


                                                   3x
---------------------------------------------------||
---------------------------------------------------||
--------------------------------------------------*||
--3--3--3--3--3--3--3--3--3--3--3--3--3--3--3--3--*||
--3--3--3--3--3--3--3--3--3--3--3--3--3--3--3--3---||
--3--3--3--3--3--3--3--3--3--3--3--3--3--3--3--3---||


                                                   
--------------------------------------------------|
--------------------------------------------------|
--------------------------------------------------|
--3--3--3--3--3--3--3--3--3--3--3--3--3--3--3--3--|
--3--3--3--3--3--3--3--3--3--3--3--3--3--3--3--3--|
--3--3--3--3--3--3--3--3--3--3--3--3--3--3--3--3--|


                                                   
--------------------------------------------------|
--------------------------------------------------|
--------------------------------------------------|
--3--3--3--3--3--3--3--3--3--3--3--3--3--3--3--3--|
--------------------------------------------------|
--3--3--3--3--3--3--3--3--3--3--3--3--3--3--3--3--|


                                                                            
|------------------------------------|------------------------------------||
|------------------------------------|------------------------------------||
|*-----------------------------------|-----------------------------------*||
|*--8--------------------------------|--0--------------------------------*||
|------------------------------------|------------------------------------||
|---8--------------------------------|--0---------------------------------||


                                                                             
-----------------------------------||---------------------------------------|
-----------------------------------||---------------------------------------|
-----------------------------------||*--------------------------------------|
--0--------------------------------||*--8--------8----8------------8--------|
-----------------------------------||---8--------8----8------------8--------|
--0--------------------------------||---8--------8----8------------8--------|


                                       7x
---------------------------------------||
---------------------------------------||
--------------------------------------*||
--0--------0----0------------0--------*||
--0--------0----0------------0---------||
--0--------0----0------------0---------||


                                                                             
----------------------------------------|-----------------------------------|
----------------------------------------|-----------------------------------|
----------------------------------------|-----------------------------------|
--5------5------5----5------5------5----|--5--------------------------------|
--5------5------5----5------5------5----|--5--------------------------------|
--5------5------5----5------5------5----|--5--------------------------------|


                                                                      
----------------------------------|----------------------------------|
----------------------------------|----------------------------------|
----------------------------------|----------------------------------|
----------------------------------|----------------------------------|
----------------------------------|----------------------------------|
----------------------------------|----------------------------------|


                                    
----------------------------------||
----------------------------------||
----------------------------------||
----------------------------------||
----------------------------------||
----------------------------------||
Colaboração e revisão:
  • Fausto Conzatti
3.884 exibições
    • ½ Tom
    • A
    • Bb
    • B
    • C
    • Db
    • D
    • Eb
    • E
    • F
    • F#
    • G
    • Ab
  • Adicionar à lista

    0 comentários

    Ver todos os comentários
    00:00 / 00:00
    outros vídeos desta música
    repetir qualidade Automático
    Outros vídeos desta música
    00:00 / 00:00
    Automático

    Cifra Club Pro

    Aproveite o Cifra Club com benefícios exclusivos e sem anúncios
    Cifra Club Pro
    Aproveite o Cifra Club com benefícios exclusivos e sem anúncios
    OK