Cifra Club

Aprenda

New Beginnings

Finch

Cifra: Principal (violão e guitarra)
tom: E
Tabbed By Gaz
G*

Intro

Guitar 1
                  Wah ~~~~~~~~~~ x5
Eb----------------------------------|
Bb------------1---------------------|
Gb----------------------------------|
Db-------3--------------------------|
Ab-1--------------------------------|
Db----------------0-----------------|

Intro Pt 2.

Guitar 1
                  Wah ~~~~~~~~~~ x4
Eb----------------------------------|
Bb------------1---------------------|
Gb----------------------------------|
Db-------3--------------------------|
Ab-1--------------------------------|
Db----------------0-----------------|

Guitar 2
                                 X4
Eb----------------------------------|
Bb----------------------------------|
Gb-----------------------10-9-9-9---|
Db-8-8--10101010--0-0-0-------------|
Ab-8-8--8-8-8-8---0-0-0--8--7-7-7---|
Db-8-8--8-8-8-8---0-0-0-------------|

Verse

Both Guitars
                                 X2
Eb--------------------------------------------------------------------|
Bb--------------------------------------------------------------------|
Gb--------------------------------------------------------------------|
Db-3333xxxx3333xxxx3333xxxx3333xxxx0000xxxx0000xxxx0000xxxx0000xxxx---|
Ab-3333xxxx3333xxxx3333xxxx3333xxxx0000xxxx0000xxxx0000xxxx0000xxxx---|
Db-3333xxxx3333xxxx3333xxxx3333xxxx0000xxxx0000xxxx0000xxxx0000xxxx---|

                                                                               X1
Eb--------------------------------------------------------------------|
Bb--------------------------------------------------------------------|
Gb--------------------------------------------------------------------|
Db-3333xxxx3333xxxx3333xxxx3333xxxx0000xxxx0000xxxx0000000000000000---|
Ab-3333xxxx3333xxxx3333xxxx3333xxxx0000xxxx0000xxxx0000000000000000---|
Db-3333xxxx3333xxxx3333xxxx3333xxxx0000xxxx0000xxxx0000000000000000---|

Chorus

Guitar 1
                  Wah ~~~~~~~~~~ x4
Eb----------------------------------|
Bb------------1---------------------|
Gb----------------------------------|
Db-------3--------------------------|
Ab-1--------------------------------|
Db----------------0-----------------|

Guitar 2
                                 X4
Eb----------------------------------|
Bb----------------------------------|
Gb-----------------------10-9-9-9---|
Db-8-8--10101010--0-0-0-------------|
Ab-8-8--8-8-8-8---0-0-0--8--7-7-7---|
Db-8-8--8-8-8-8---0-0-0-------------|

Verse 2

Both Guitars
                                 X1
Eb--------------------------------------------------------------------|
Bb--------------------------------------------------------------------|
Gb--------------------------------------------------------------------|
Db-3333xxxx3333xxxx3333xxxx3333xxxx0000xxxx0000xxxx0000xxxx0000xxxx---|
Ab-3333xxxx3333xxxx3333xxxx3333xxxx0000xxxx0000xxxx0000xxxx0000xxxx---|
Db-3333xxxx3333xxxx3333xxxx3333xxxx0000xxxx0000xxxx0000xxxx0000xxxx---|

                                                                               X1
Eb--------------------------------------------------------------------|
Bb--------------------------------------------------------------------|
Gb--------------------------------------------------------------------|
Db-3333xxxx3333xxxx3333xxxx3333xxxx0000xxxx0000xxxx0000000000000000---|
Ab-3333xxxx3333xxxx3333xxxx3333xxxx0000xxxx0000xxxx0000000000000000---|
Db-3333xxxx3333xxxx3333xxxx3333xxxx0000xxxx0000xxxx0000000000000000---|

Chorus

Guitar 1
                  Wah ~~~~~~~~~~ x8
Eb----------------------------------|
Bb------------1---------------------|
Gb----------------------------------|
Db-------3--------------------------|
Ab-1--------------------------------|
Db----------------0-----------------|

Guitar 2
                                 X8
Eb----------------------------------|
Bb----------------------------------|
Gb-----------------------10-9-9-9---|
Db-8-8--10101010--0-0-0-------------|
Ab-8-8--8-8-8-8---0-0-0--8--7-7-7---|
Db-8-8--8-8-8-8---0-0-0-------------|

Bridge

Guitar 2                         x4 extra bar at the end of bridge

Eb---------------------------------------------------------------------|
Bb---------------------------------------------------------------------|
Gb---------------------------------------------------------------------|
Db-5-5-5-5-5-5-8-8-8-8-8-8--33333333333333333333333333333333333333-----|
Ab-5-5-5-5-5-5-8-8-8-8-8-8--33333333333333333333333333333333333333-----|
Db-5-5-5-5-5-5-8-8-8-8-8-8--33333333333333333333333333333333333333-----|

Guitar 1                         x4 extra 2 bars at the end of bridge

Eb---------------------------------------------------------------------|
Bb---------------------------------------------------------------------|
Gb-9-9-9-9-9-9-1010101010105-5-5-5-5-5-5-5-5-5-5-5-5-5-5-5-5-5-5-5-----|
Db---------------------------------------------------------------------|
Ab-7-7-7-7-7-7-8-8-8-8-8-8-3-3-3-3-3-3-3-3-3-3-3-3-3-3-3-3-3-3-3-3-----|
Db---------------------------------------------------------------------|


Mellow Section

Guitar 1 Clean               x4

Eb--------------------------------------|
Bb--------------------------------------|
Gb--------------------------------------|
Db--8--------------0--------------------|
Ab--8-let-ring-----0-let-ring-----------|
Db--8--------------0--------------------|

Guitar 2 (after guitar 1)


Eb---------------------------------------|
Bb---------------------------------------|
Gb----------------------------10--9-9-9--|
Db---------------------------------------|
Ab----------------------------8---7-7-7--|
Db---------------------------------------|

Chorus

Guitar 1
                  Wah ~~~~~~~~~~ x8
Eb----------------------------------|
Bb------------1---------------------|
Gb----------------------------------|
Db-------3--------------------------|
Ab-1--------------------------------|
Db----------------0-----------------|

Guitar 2
                                 X8
Eb----------------------------------|
Bb----------------------------------|
Gb-----------------------10-9-9-9---|
Db-8-8--10101010--0-0-0-------------|
Ab-8-8--8-8-8-8---0-0-0--8--7-7-7---|
Db-8-8--8-8-8-8---0-0-0-------------|


Outro

Both Guitars

Eb--------------------------------------|
Bb--------------------------------------|
Gb--------------------------------------|
Db---8-8-8-8---0------------------------|
Ab---8-8-8-8---0--let-ring-with-effects-|
Db---8-8-8-8---0------------------------|
Composição de Finch / Nate Barcalow
841 exibições
    • ½ Tom
    • A
    • Bb
    • B
    • C
    • Db
    • D
    • Eb
    • E
    • F
    • F#
    • G
    • Ab
  • Adicionar à lista

    0 comentários

    Ver todos os comentários
    00:00 / 00:00
    outros vídeos desta música
    repetir qualidade Automático
    Outros vídeos desta música
    00:00 / 00:00
    Automático

    Cifra Club Pro

    Aproveite o Cifra Club com benefícios exclusivos e sem anúncios
    Cifra Club Pro
    Aproveite o Cifra Club com benefícios exclusivos e sem anúncios
    OK