Cifra Club

Aprenda

Perfection through silence

Finch

Cifra: Principal (violão e guitarra)
tom: A
Introdução:

E---------|---------------------------|---------------------------------------------
B---------|---------------------------|---------------------------------------------
G--55~/8--|--8-----5------------------|--8------------------------------------------
D--55~/8--|--8-x32-5-x32-5-----6------|--x------------------------------------------
A--33~/6--|--6-----3-----5-x32-6-x32--|--6------------------------------------------
D---------|--------------5-----6------|---------------------------------------------
E-----------------------------------------------------------------------------------
B-----------------------------------------------------------------------------------
G--5-5----8-8-----8-7---------------------------------------------------------------
D--5-5--8-8-8-6-6-8-7---------------------------------------------------------------
A--3-3--8-6-6-6-6-6-5---------------------------------------------------------------
D-------8-----6-6-------------------------------------------------------------------

E-----------------------------------------------------------------------------------
B-----------------------------------------------------------------------------------
G--5-----8-----------8--------------------------------------------------------------
D--5-x16-8-x16-6-----8-x16----------------------------------------------------------
A--3-----6-----6-x16-6--------------------------------------------------------------
D--------------6--------------------------------------------------------------------

E-----------------------------------------------------------------------------------
B-----------------------------------------------------------------------------------
G--8-----5--------------------------------------------------------------------------
D--8-x32-5-x32-5-----6--------------------------------------------------------------
A--6-----3-----5-x32-6-x32----------------------------------------------------------
D--------------5-----6--------------------------------------------------------------
   
Alone at last together in a photograph 
Our eyes are always open devoted to perfection through silence 
What am I supposed to do? Should I sit wait for you? 
Listen to me screaming more 
This story is old only to those that have no mold 
The truth can be bought or sold 
But what are we buying? 
Nothing but silence 
What am I supposed to do? Should I sit wait for you? 
Listen to me screaming more
Tell me what am I supposed to do? Should I sit wait for you? 
Listen to me screaming more 
Fold the Corners, Break the silence...
Fold the Corners, Just for tonight...
Fold the Corners, Break the silence...
Fold the Corners, Just for tonight...
What am I supposed to do? Should I sit wait for you? 
Listen to me screaming more 
Tell me what am I supposed to do? Should I sit wait for you? 
Listen to me screaming more
Composição de Finch / Nate Barcalow
Colaboração e revisão:
  • Manoel Junior
3.007 exibições
    • ½ Tom
    • A
    • Bb
    • B
    • C
    • Db
    • D
    • Eb
    • E
    • F
    • F#
    • G
    • Ab
  • Adicionar à lista

    0 comentários

    Ver todos os comentários

    Conseguiu tocar?

    0 Tocaram 0 Ainda não

    Grave um vídeo tocando Perfection through silence e nos envie!

    00:00 / 00:00
    outros vídeos desta música
    repetir qualidade Automático
    Outros vídeos desta música
    00:00 / 00:00
    Automático

    Cifra Club Pro

    Aproveite o Cifra Club com benefícios exclusivos e sem anúncios
    Cifra Club Pro
    Aproveite o Cifra Club com benefícios exclusivos e sem anúncios
    OK