Cifra Club

Aprenda

Post script

Finch

Cifra: Principal (violão e guitarra)
tom: G
|Guitarra 1 Introduçao
--------------------------------------------------|
|--------------------------------------------------|
|--77-66------77-66-----77-66----------------------|
|--------77---------77-----------------------------|
|--------------------------------------------------|
|--------------------------------------------------|

|------------------------------------------------------------------------------------|
|------------------------------------------------------------------------------------|
Guitarra 2 Introduçao
|--77-77-77-7-7-------14-14-14-14--14-14---14---14-14-14-14-14--14-14---14---14--997-|
|--xx-xx-xx-x-x--------x--x--x--x---x--x----x----x--x--x--x--x---x--x----x----x--xxx-|
|--55-55-55-5-5-------12-12-12-12--12-12---12---12-12-12-12-12--12-12---12---12--777-|
|------------------------------------------------------------------------------------|
Guitarra 1: 
|-----------|   |--------------------------|
|-----3-----|   |--------------------------|
|---0---0---|   |--------------------------|
|-4---------|x6 |--------------------------|
|-----------|   |--0-4-5----0--4--5---0?4--|
|-----------|   |--0-4-5----0--4--5---0-4--|

Guitarra 2 


|-----------------------------|--------------------------|
|-----------------------------|--------------------------|
|-44444444----------44444444--|--------------------------|
|-44444444-0000000--44444444--|--------------------------|
|-22222222-0000000--22222222--|--0-4-5----0--4--5---0?4--|
|----------0000000------------|--0-4-5----0--4--5---0-4--|

I wish it didn´t hurt, hurt like this
To say these things to you
I´ll sacrifice 
one moment 
for one truth

If we get through tomorrow then we´ll be fine
(Than we´ll be fine)
We´ll wait for, forever and see how close we get

It´s just another day
One more chance to get this right
I´ll sacrifice forever, please just for tonight

If we get through tomorrow then we´ll be fine
(then we´ll be fine)
We´ll wait for forever and see how close we get
(WE GET!)

The worst is over for now
Take a breath, now let it out
The worst is over for now
Take a breath, now let it out
The worst is over for now
Composição de Finch / Nate Barcalow
Colaboração e revisão:
  • Manoel Junior
2.899 exibições
    • ½ Tom
    • A
    • Bb
    • B
    • C
    • Db
    • D
    • Eb
    • E
    • F
    • F#
    • G
    • Ab
  • Adicionar à lista

    0 comentários

    Ver todos os comentários
    00:00 / 00:00
    outros vídeos desta música
    repetir qualidade Automático
    Outros vídeos desta música
    00:00 / 00:00
    Automático

    Cifra Club Pro

    Aproveite o Cifra Club com benefícios exclusivos e sem anúncios
    Cifra Club Pro
    Aproveite o Cifra Club com benefícios exclusivos e sem anúncios
    OK