Cifra Club

Aprenda

Adoro

Finde

Cifra: Principal (violão e guitarra)
tom: Em
E|-7-------------------------------------------------------------|
B|-8----------------------------7--------------------------------|
G|-7----------------------5-----7--------------------------------|
D|-9----------------------5--------------------------------2-----|
A|-7----------------------0--------------------------------2-----|
E|-0----------------------------7--------------------------0-----|

y aki la 2nda
E|----------------------------------------------------------------|
B|----------------------------------------------------------------|
G|-12---12--11--11--9--7--5-----11-----11-11---11----9-----11---9-|
D|--------s-------------------------------------------------------|
A|-10---10--9---9---7--5--3-----9-------9-9----9-----7-----9----7-|
E|----------------------------------------------------------------|

 continuacion de la 1ra
E|------------7------------------------------------------|
B|------------8------------------------------------------|
G|--5-4-------7---------------------------5--------------|
D|--5-4-------9---------------------------5--------------|
A|--3-2-------7---------------------------0--------------|
E|------------0------------------------------------------|

 aki sigue la 2nda
E|-------------------------------------------------------|
B|-------------------------------------------------------|
G|--9-8-------12-----12-12--12----11--9---14---14--------|
D|-----------------------------------------------14------|
A|--7-6-------10-----10-10--10----9---7---12-------12----|
E|---------------------------------------------------12--|

    1ra
E|------------------------------------------------|
B|------------------------------------------------|
G|------------------------------5----4------------|
D|--5-------4--------2----------5----4------------|
A|--5-------4--------2----------3----2------------|
E|--3-------2--------0----------------------------|

    2nda
E|------------------------------------------------|
B|------------------------------------------------|
G|-----12------11----9----------17--16------------|
D|------------------------------------------------|
A|--10------9--------7----------15--14------------|
E|------------------------------------------------|






aki empieza la letra y en las estrofas igual llevan 2 guitarras
 1 con la base y la otra haciendo estos arreglos


      Em                                           Am
    adoro,                     la calle en que nos vimos
E|------------------------------------------------------------------------|
B|------------------------------------------------------------------------|
G|------------------------------------------------------------------------|
D|---5--5/7-------5-5/7---------------------------------------------------|
A|--7----------7----------------------------------0--0-3-3/0----0--0-3-3/0|
E|-0----------0-----------------------------------------------------------|

       D                             G         F#m
    la noche,        cuando nos conocimos
E|------------------------------------------------------------|
B|------------------------------------------------------------|
G|------------------------------------------------------------|
D|---------7-7/5--5-4-4--5/4------------5--------4----------------|
A|-----5-5------------------5---------5---5-----5-----------------|
E|----------------------------------3---------2------------------|

     Em                        Am
    adoro,    las cosas que me dices,
E|-----------------------------------------------------|
B|-----------------------------------------------------|
G|-----------------------------------------------------|
D|---5--5------5--5/7---------------5--5-------5--5/7--|
A|--7----7----7----------------0--7-----7--0--7---------|
E|-0---------0-----------------------------------------|


                    Bm                               Em        C Bm
    por los ratos felices           los adoro   vida mia
E|---------------------------------------------------------------------|
B|---------------------------------------------------------------------|
G|------------------------------------------------------------5--4-----|
D|-----------------9/7---7---5-5---4-4--5/4----------------------------|
A|------------------------------------------5-----------------3--2-----|
E|---------------------------------------------------------------------|

 se toca lo mismo en la siguente estrofa



ahora en el coro se toca esto :

     Am           D             G
Y me muero por tenerte junto a mí,
           Em       Am          D       G     Em
cerca, muy cerca de mí, no separarme de ti.
       Am          D              G
Es que eres mi existencia, mi sentir,
         Em          Am            C         B    C  ,B,Am,G,F#m,Em
eres mi luna eres mi Sol, eres mi noche de amor.



aki sigue :
ESTROF  X1
CORO X1



 y luegp va el solo de pp-
E|--------------------------------------------------------|
B|-------8---8/10----------8--8/10------------8--8/10-----| todo esto
G|--9-------------------5-----------------7---------------|
D|--9----5---5/7---x2---5--5--5/7---x2----7---5--5/7----x2| se toca dos
A|--7-------------------3-----------------5---------------|
E|--------------------------------------------------------| veces



CORO X1


y al final va algo asi nada mas saquenle bn los tiempos


E|--------------------------------|
B|-----------------------12--12/0-|
G|-----------------------12--12/0-|
D|--2-2-2-2-2-2-2-2---------------|
A|--2-2-2-2-2-2-2-2---------------|
E|--0-0-0-0-0-0-0-0---------------|
Composição de El Títere/Furia Interior/Inédito/Israel Espitia Minutti/Sangrando Sueños/Sangrando sue~os
    • ½ Tom
    • Am
    • Bbm
    • Bm
    • Cm
    • C#m
    • Dm
    • Ebm
    • Em
    • Fm
    • F#m
    • Gm
    • G#m
  • Adicionar à lista

    0 comentários

    Ver todos os comentários

    Conseguiu tocar?

    0 Tocaram 0 Ainda não

    Grave um vídeo tocando Adoro e nos envie!

    00:00 / 00:00
    Outros vídeos desta música
    Repetir Qualidade Automático
    Outros vídeos desta música
    00:00 / 00:00
    Automático

    Cifra Club Pro

    Aproveite o Cifra Club com benefícios exclusivos e sem anúncios
    Cifra Club Pro
    Aproveite o Cifra Club com benefícios exclusivos e sem anúncios
    OK