Cifra Club

Aprenda

Intoxicado

Finde

Cifra: Principal (violão e guitarra)
tom: Bm
el intro es con este acorde de Rem:
E|---0|
B|---5|
G|---7|
D|---7|
A|----|
E|----|

Se toca en aropegio y donde dice Ar. se toca en Armonico.

         Ar.         Ar.         Ar.         Ar.
E|-------0-----------0---------0----------0-------|
B|-----5-----------5---------5----------5---------|
G|---7-----------7---------7----------7-----------|
D|-7-----------7---------7----------7-------------|
A|------------------------------------------------|
E|------------------------------------------------|

Esto lo vamos a llamar "Riff UNO"



Esto se repite 24 veces en la cancion comercial, hasta el cambio a
(o tambien en el segundo 18) y sigue:
CUANC  COEE NZA A  BATERIA SE D PITE EL ARPEGIO 3 VECES EE NTRAS SE
TOCA B5 Y BG UE EL RIFF C S Y SU DURACION ES DE C S CICLOS.

E|--------5--------------5------(2--3--2----|
B|--7-------7-----7--------7-------------3)-|
G|----7-7-----7-----7-7------7--------------|
D|-----------------------------------------|
A|-----------------------------------------|
E|-----------------------------------------|
Esto lo llamamos riff C S

Ojo: No se confundan con el sonido de la segunda guitarra, este
requinto esta bien. La parte entre parentesis se repite desde el
segundo 26 tres veces.

Este riff se toca con algun pedal de chorus y eco.
Lo llamare riff "eco". Se repite desde donde comienza a cantar
 o en el segundo 28 hasta el 51 o donde dice "intoxica todo".

E|------9------12------9------9----------------|
B|----7---7----------7---7---------------------|
G|--7-------7------7-------7-------------------|
D|---------------------------------------------|
A|---------------------------------------------|
E|---------------------------------------------|


sigue el
riff:
E|--9---5---9---5---9---5---------------| Asi sucesivamente hasta
B|----7---7---7---7---7---7------------| donde dice "a consecuencia
G|------------------------------------| no queda nada (minuto 1:02)"
D|----------------------------------------|
A|----------------------------------------|
E|-----------------------------------------|
Este se llama riff tres

Este riff va en la segunda parte del coro y va asi:
E|--------------------------------------------|
B|--3---5---7---5---3---5---3----------------|
G|------------------------------2------------|
D|-------------------------------------------|
A|----------------------------------------------|
E|----------------------------------------------|
RIFF CUATRO y se repite hasta que termina la frase.

D QUINTO
E|-19-----------19--------------------------------|
B|-----20--19--------20--19---------------------|
G|---------------------------19v----| Esta nota lleva vibrato lento
D|--------------------------------------------|
A|----------------------------------------------|
E|----------------------------------------------|

E|--------------------------------------------|
B|-------------------------------------------|
G|--------------------------------------------|
D|--12-12-12-11-11-11-9-9-9-5-5-5-4-4-4--0-2-0--|
A|----------------------------------------------|
E|----------------------------------------------|
RIFF ESCAA R, este esta bien escondido en los arreglos y muy
apenas lo indentifique por lo que si esta mal corriganle.

ACORDES: GUITARRA C S
Les voy a dar los acordes que pude sacar y son:
F#5  / G5  /  D5    /    B5  /  A 
E|-------------------------------X----------|
B|-------------------------------X----|
G|-------------7----------4------2----------|
D|-4---5-------7----------4------2---------|
A|-4---5-------5----------2------0----------|
E|-2---3-------------------------X--------|

GUITARRA 2:


EL COEE NZO CON A  GUITARRA C S VA AB :
Es importante escuchar la cancion para que comprendad el ritmo
que lleva este rasgueo, se realizan dos rasgueos y se aflojan
los dedos que mantienen a las cuerdas del lado izquierdo, se
 realiza otra vez, y la tercera se deja sonando y se toca las
4 notas siguientes. Esto es igual con G5.


E|-------------------------------------------------|
B|--------------2--3--2------------------------------|
G|-4-4-4-4-4-4-----------2---------------------------|
D|-4-4-4-4-4-4---------------5-5-5-5-5-5----4--5--4---|
A|-2-2-2-2-2-2---------------5-5-5-5-5-5------------5-|
E|---------------------------3-3-3-3-3-3----------------|
X: significa que la cuerda no se toca en el acorde

EN A  CANCION EN EL E NUTO 2:36 COEE NZA DE NUEVO CON EL RIFF DE A 
PARTE DE ARRIBA DESPUES DE 3 D PETICIONES BG UE ESTO
E|-------------------------------------------------|
B|------------------------------------------------|
G|-4-4-4-4-4-4---6-7-6---------------------------------|
D|-4-4-4-4-4-4---------7-----5-5-5-5-5-5---------9--10--9---|
A|-2-2-2-2-2-2---------------5-5-5-5-5-5------------------10--|
E|---------------------------3-3-3-3-3-3--------------------|




*En la parte del coro  no hay acordes pero los pongo para tocarla en
acustica, en lugar de 5ta los usan en mayores menos Si, porque es
 Sim.OBSERVEN Y BE NTAN EL CAMBIO DE LOS ACORDES CON A  CANCION
Y NO SE BASEN DEMABAD O EN ESTA PAGINA.

B5 "RIFF ECO"            G5
Salí corriendo ayer sin saber porque
B5
rodeado de soledad
   G5
perdido en la oscuridad
B5                  G5
Maldita confusión explota contra todos
B5                             G5
dices que el tiempo es lo que intoxica todo

"RIFF TD S"
F#5                   G5
Sali corriendo sin pensar
F#5                        G5
y a concecuencia no queda nada

RIFF UNO
D5                      B5
Lo siento no quize escapar
                         A5
no puedo estar sin ti
                               G5
siento que voy a morir y siento que voy a morir

RIFF CUATRO
D5                          B5
Detente y vuelve a respirar
           A5
otra vez hablando por teléfono
G5
llorando la misma canción
F#5                   G5
y en concecuencia no queda nada

AQUI VA EL D QUINTO


RIFF ECO
B5                      G5
Maldita confusión explota contra todos
B5                       G5
dices que el tiempo es lo que intoxica todo

RIFF TD S
F#5                     G5
Sali corriendo sin pensar
F#5                          G5
y en concecuencia no queda nada

RIFF UNO
D5                      B5
Lo siento no quize escapar
                       A5
no puedo estar sin ti
                           G5
siento que voy a morir y siento que voy a morir

RIFF CUATRO
D5                          B5
detente y vuelve a respirar
            A5
otra vez hablando por teléfono
G5
llorando la misma canción
F#5                         G5
y en concecuencia no queda nada

AQUI VA BM IA R AL PRINCIPIO PERO DESPUES DE TERE NAR VA EL RIFF
OJO!!

RIFF ESCAA R  RIFF UNO
F#5                     G5
Salí corriendo sin pensar

RIFF UNO
D5                      B5
Lo siento no quize escapar
                     A5
no puedo estar sin ti
                           G5
Siento que voy a morir y siento que voy a morir

RIFF UNO
D5
No me sueltes
B5
no me dejes
A5           G5
no podré seguir
F#5                        G5
y a consecuencia no queda nada
Composição de No te Quedes Dibujado
    • ½ Tom
    • Am
    • Bbm
    • Bm
    • Cm
    • C#m
    • Dm
    • Ebm
    • Em
    • Fm
    • F#m
    • Gm
    • G#m
  • Adicionar à lista

    0 comentários

    Ver todos os comentários

    Conseguiu tocar?

    0 Tocaram 0 Ainda não

    Grave um vídeo tocando Intoxicado e nos envie!

    00:00 / 00:00
    Outros vídeos desta música
    Repetir Qualidade Automático
    Outros vídeos desta música
    00:00 / 00:00
    Automático

    Cifra Club Pro

    Aproveite o Cifra Club com benefícios exclusivos e sem anúncios
    Cifra Club Pro
    Aproveite o Cifra Club com benefícios exclusivos e sem anúncios
    OK