Cifra Club

Bleeding

Five Finger Death Punch

Cifra: Principal (violão e guitarra)
tom: Db (forma dos acordes no tom de Eb) Afinação: D G C F A D
DROP C


Into/Verse x2 Guitar 1 (clean)
D|---------------------------------------------------------------|
A|---------------------------------------------------------------|
F|-------14---------15---------14-------------12---------12h14---|
C|--/12-------12-12------12-12--------12--12--------12-12--------|
G|---------------------------------------------------------------|
C|---------------------------------------------------------------|x2

D|-------------------------------------------------------------|
A|-------------------------------------------------------------|
F|------10------10-------10-------10------10-------------------|
C|--/8------8-8------8-8-------8-8----8-8---8------------------|
G|-------------------------------------------------------------|
C|-------------------------------------------------------------|

D|-------------------------------------------------------------|
A|-------------------------------------------------------------|
F|------12---------12---------12----------12-------12----------|
C|--/10------10-10------10-10-------10-10----10-10----10-------|
G|-------------------------------------------------------------|
C|-------------------------------------------------------------|

Either continue through post solo with verse 2 more x or
Do this  riff below

Pre Solo/Chorus Guitar 2 (distortion)

D|-------------------------------------------------|
A|-------------------------------------------------|
F|-------------------------3-3-3-3-3--5-5-5-5-5----|
C|---0-0-0-0-0--0-0-0-0-0--3-3-3-3-3--5-5-5-5-5----|
G|---0-0-0-0-0--0-0-0-0-0--1-1-1-1-1--3-3-3-3-3----|
C|---0-0-0-0-0--0-0-0-0-0--------------------------| x1
P.m.........  .........  .........  .........
Figure out the strumming its pretty easy

SOLO  GUITAR 1



D|-15b17~~~-15b17r15-13-12-------------------------------------------------|
A|-------------------------/13~~~--/13-13-15-10~~~--/10-10-10--8-8-8~~~----|
F|-------------------------------------------------------------------------|
C|-------------------------------------------------------------------------|
G|-------------------------------------------------------------------------|
C|-------------------------------------------------------------------------|

D|-------------13-15b17~~~--15b17r15-13-12-/20~~~--------------------------|
A|----------15-------------------------------------------------------------|
F|-------14----------------------------------------------------------------|
C|-12-15-------------------------------------------------------------------|
G|-------------------------------------------------------------------------|
C|-------------------------------------------------------------------------|
                    T
D|------------17h20h22p20---------------20b22-20b22-(20)-(20)~~~-----------|
A|----------18-----------18------------------------------------------------|
F|--------19---------------19----------------------------------------------|
C|------19-------------------19--------------------------------------------|
G|-17h20-----------------------20p17---------------------------------------|
C|-------------------------------------------------------------------------|

D|-20b22-(20)-20-20~~~~~~~~------------------------------------------------|
A|-------------------------------------------------------------------------|
F|-------------------------------------------------------------------------|
C|-------------------------------------------------------------------------|
G|-------------------------------------------------------------------------|
C|-------------------------------------------------------------------------|





Sweep

Riff During solo (distortion)
Guitar 2
D|-----------------------------------------|
A|-----------------------------------------|
F|-----------------------------------------|
C|---0---0-0--7---7-7--3---3-3--5---5-5----|
G|---0---0-0--7---7-7--3---3-3--5---5-5----|
C|---0---0-0--7---7-7--3---3-3--5---5-5----|x2


Then Intro/Verse
Guitar 1  x4 (clean)
D|---------------------------------------------------------------|
A|---------------------------------------------------------------|
F|-------14---------15---------14-------------12---------12h14---|
C|--/12-------12-12------12-12--------12--12--------12-12--------|
G|---------------------------------------------------------------|
C|---------------------------------------------------------------|x2

D|-------------------------------------------------------------|
A|-------------------------------------------------------------|
F|------10------10-------10-------10------10-------------------|
C|--/8------8-8------8-8-------8-8----8-8---8------------------|
G|-------------------------------------------------------------|
C|-------------------------------------------------------------|

D|-------------------------------------------------------------|
A|-------------------------------------------------------------|
F|------12---------12---------12----------12-------12----------|
C|--/10------10-10------10-10-------10-10----10-10----10-------|
G|-------------------------------------------------------------|
C|-------------------------------------------------------------|

Guitar 2 (distortion)
D|-----------------------------------------|
A|-----------------------------------------|
F|-----------------------------------------|
C|---0------------------8--------10--------|
G|---0------------------8--------10--------|
C|---0------------------8--------10--------|x2

D|-----------------------------------------|
A|-----------------------------------------|
F|-----------------------------------------|
C|---0---0-0--7---7-7--3---3-3--5---5-5----|
G|---0---0-0--7---7-7--3---3-3--5---5-5----|
C|---0---0-0--7---7-7--3---3-3--5---5-5----|x2

Chorus Both Guitars (distortion)
D|-----------------------------------------------------------------|
A|-----------------------------------------------------------------|
F|-----------------------------------------------------------------|
C|---0-0---x-x---x-0-0---x-x---x-0-0---x-x---x-3-3-3-3-5-5-5-5-----|
G|---0-0---x-x---x-0-0---x-x---x-0-0---x-x---x-3-3-3-3-5-5-5-5-----|
C|---0-0---x-x---x-0-0---x-x---x-0-0---x-x---x-3-3-3-3-5-5-5-5-----|x2


Then Intro/Verse
Guitar 1  x4 (clean)
D|---------------------------------------------------------------|
A|---------------------------------------------------------------|
F|-------14---------15---------14-------------12---------12h14---|
C|--/12-------12-12------12-12--------12--12--------12-12--------|
G|---------------------------------------------------------------|
C|---------------------------------------------------------------|x2

D|-------------------------------------------------------------|
A|-------------------------------------------------------------|
F|------10------10-------10-------10------10-------------------|
C|--/8------8-8------8-8-------8-8----8-8---8------------------|
G|-------------------------------------------------------------|
C|-------------------------------------------------------------|

D|-------------------------------------------------------------|
A|-------------------------------------------------------------|
F|------12---------12---------12----------12-------12----------|
C|--/10------10-10------10-10-------10-10----10-10----10-------|
G|-------------------------------------------------------------|
C|-------------------------------------------------------------|

Guitar 2  (distortion)
D|-----------------------------------------|
A|-----------------------------------------|
F|-----------------------------------------|
C|---0------------------8--------10--------|
G|---0------------------8--------10--------|
C|---0------------------8--------10--------|x2

D|-----------------------------------------|
A|-----------------------------------------|
F|-----------------------------------------|
C|---0---0-0--7---7-7--3---3-3--5---5-5----|
G|---0---0-0--7---7-7--3---3-3--5---5-5----|
C|---0---0-0--7---7-7--3---3-3--5---5-5----|x2

Then Chorus x2


Then Bridge Both Guitars (distortion)
D|-----------------------------------------|
A|-----------------------------------------|
F|-----------------------------------------|
C|---0---0-0--7---7-7--3---3-3--5---5-5----|
G|---0---0-0--7---7-7--3---3-3--5---5-5----|
C|---0---0-0--7---7-7--3---3-3--5---5-5----|x2

Then Chorus x2


Outro
Then Intro/Verse
Guitar 1  x4 (clean)
D|---------------------------------------------------------------|
A|---------------------------------------------------------------|
F|-------14---------15---------14-------------12---------12h14---|
C|--/12-------12-12------12-12--------12--12--------12-12--------|
G|---------------------------------------------------------------|
C|---------------------------------------------------------------|x2

D|-------------------------------------------------------------|
A|-------------------------------------------------------------|
F|------10------10-------10-------10------10-------------------|
C|--/8------8-8------8-8-------8-8----8-8---8------------------|
G|-------------------------------------------------------------|
C|-------------------------------------------------------------|

D|-------------------------------------------------------------|
A|-------------------------------------------------------------|
F|------12---------12---------12----------12-------12----------|
C|--/10------10-10------10-10-------10-10----10-10----10-------|Slow Down
G|-------------------------------------------------------------|
C|-------------------------------------------------------------|
Composição de Five Finger Death Punch
Colaboração e revisão:
  • Renan
10.849 exibições
    • ½ Tom
    • A
    • Bb
    • B
    • C
    • Db
    • D
    • Eb
    • E
    • F
    • F#
    • G
    • Ab
  • Adicionar à lista

    0 comentários

    Ver todos os comentários

    Conseguiu tocar?

    2 Tocaram 0 Ainda não

    Grave um vídeo tocando Bleeding e nos envie!

    00:00 / 00:00
    Outros vídeos desta música
    Repetir Qualidade Automático
    Outros vídeos desta música
    00:00 / 00:00
    Automático

    Cifra Club Pro

    Aproveite o Cifra Club com benefícios exclusivos e sem anúncios
    Cifra Club Pro
    Aproveite o Cifra Club com benefícios exclusivos e sem anúncios
    OK