Cifra Club

Tareco e Mariola

Flávio José

Cifra: Principal (violão e guitarra)
exibições 169.679
Tom: Am
[Intro] Dm  Am  E  Am  A7  Dm  Am  E  Am  E

E|---------------|----------------------------|
B|----------6-6--|----------6-6-6--6-6-6-6----|
G|--9-7-9-7------|--7-7-7-7----------------9--|
D|---------------|----------------------------|
A|---------------|----------------------------|
E|---------------|----------------------------|

E|------------------------------|---------------------------------|
B|-----------5-5-5-5-5-5-5-5----|---------------------------------|
G|--5-5-5-5------------------7--|---------------------------------|
D|------------------------------|--9-9-9-9-10-10-10-10-9-7-6-9-7--|
A|------------------------------|---------------------------------|
E|------------------------------|---------------------------------|

E|--------------|
B|--------------|
G|--9-7---------|
D|------10-9-7--|
A|--------------|
E|--------------|

Am
Eu não preciso de você
                                  E
O mundo é grande e o destino me espera

Não é você que vai me dar na primavera
                                        Am  E
As flores lindas que eu sonhei no meu verão
Am
Eu não preciso de você
                                 E
Já fiz de tudo pra mudar meu endereço

Já revirei a minha vida pelo avesso
                                      Am
Juro por Deus não encontrei você mais não
 G7
Carta na mesa
                                C
Bom jogador conhece o jogo pela regra
                                   E7
Não sabes tu que eu já tirei leite de pedra
           F                          E7 Am
Só pra te ver sorrir, pra mim não chorar
         G7
Você foi longe
                              C
Me machucando provocou a minha ira
                                        E7
Só que eu nasci entre o velame e a macambira
          F           E7            Am   A7
Quem é você pra derramar meu mungunzá?
        Dm
Eu me criei
           G7                   C
Ouvindo o toque do martelo na poeira
            Am                           E7
Ninguem melhor que mestre Osvaldo na madeira
         F         E7/B           Am    A7
Com sua arte criou muito mais de dez
        Dm
Eu me criei
           G7                   C
Matando a fome com tareco e mariola
         Am                  E7
Fazendo verso dedilhado na viola
             F             E7/B        Am
Por entre os becos do meu velho Vassoural
Acordes para:

    0 comentários

      mostrar mais comentários

      Conseguiu tocar?

      6tocaram0ainda não

      Grave um vídeo tocando Tareco e Mariola e mande pra gente!

      00:00 / 00:00
      outros vídeos desta música
      repetirqualidadeAutomático
      Outro vídeos desta música
        00:00 / 00:00
        OK