Cifra Club

Whole

Flaw

Cifra: Principal (violão e guitarra)
tom: D
"Whole" by Flaw

Intro/ 1st Verse(Bass: Guitar comes in at 0:28)
E|-------------------
B|-------------------
G|-------then-at-11--
D|-1------0:36----x--
A|-1--------------9--
E|-1-----------------

Pre|-Chorus(0:47, 1:43, 3:01)
E|-----
B|-11--
G—-x—very fast
D—-9--
A|-----
E|-----

Chorus:(0:50, 1:46, 3:04)
E|-----------------|---------------|
B|-----------------|---------------|
G—-11—-11/9/12-11-|-11-11-9-9-9/7-|
D|--x---x/x/-x—-x-|--x—-x-x-x-x/x-|
A—--9---9/7/10—-9-|--9—-9-7-7-7/5-|
E|-----------------|---------------|

2nd Verse: 1:11, then again at 2:10
E|---|----1:24--------|
B|---|----------------|
G|---|--------------9-|
D|-1-|-1-1—-1-1-1---8-|
A|-1-|-1-1--1-1-1---7-|
E|-1-|-1-1--1-1-1-----|

Bridge: (Right After 2nd verse)
E|-----------|-----------------------|
B|---2:17----|-----------------------|
G|-----------|---------9-----------9-|
D|-1-1-1-1-1-|-1-1-1-1-8-1-1-1-x-x-8-|
A-1-1-1-1-1-|-1-1-1-1-7-1-1-1-x-x-7-|
E|-1-1—1-1-1-|-1-1-1-1---1-1-1-x-x---|

Interlude: Mostly Bass, Guitar at 2:41
E|------------------|--------------|
B|------------------|------------3-|
G—11—-7----11—7----|-9-5------7-2-|
D|--------9-------7-|-----7------1-|
A|------------------|--------------|
E|------------------|--------------|

End
E|---|
B|---|
G|---|
D|-1-|
A-1-|
e|-1-|

Composição de Chris Volz / Flaw
Colaboração e revisão:
  • Arthur Freita
1.198 exibições
    • ½ Tom
    • A
    • Bb
    • B
    • C
    • Db
    • D
    • Eb
    • E
    • F
    • F#
    • G
    • Ab
  • Adicionar à lista

    0 comentários

    Ver todos os comentários

    Conseguiu tocar?

    0 Tocaram 0 Ainda não

    Grave um vídeo tocando Whole e nos envie!

    00:00 / 00:00
    Outros vídeos desta música
    Repetir Qualidade Automático
    Outros vídeos desta música
    00:00 / 00:00
    Automático

    Cifra Club Pro

    Aproveite o Cifra Club com benefícios exclusivos e sem anúncios
    Cifra Club Pro
    Aproveite o Cifra Club com benefícios exclusivos e sem anúncios
    OK