Cifra Club

Featherweight

Fleet Foxes

Cifra: Principal (violão e guitarra)
Selo Cifra Club: esta cifra foi revisada para atender aos critérios oficiais da nossa Equipe de Qualidade.
tom: Gm (forma dos acordes no tom de Em) Capotraste na 3ª casa
[Tab - Intro]

E|----0--------0--------0--------0-----0-----0-----0-----0-----0-----0-----5-----5-----5-----5-----|
B|-1-----1--3-----3--5-----5--7-----7-----8-----10----12----12----12----10----10----10----10----10-|
G|-------------------------------------------------------------------------------------------------|
D|-------------------------------------------------------------------------------------------------|
A|-------------------------------------------------------------------------------------------------|
E|-------------------------------------------------------------------------------------------------|

E|-------------------------------------------------------------------------------------------------|
B|-------------------------------------------------------------------------------------------------|
G|----0--------0--------0--------0-----4-----5-----7-----7-----7-----5-----5-----5-----5-----5-----|
D|-2-----2--4-----4--5-----5--7-----7-----7-----7-----7-----7-----7-----7-----7-----7-----7-----7--|
A|-------------------------------------------------------------------------------------------------|
E|-------------------------------------------------------------------------------------------------|

[Intro] Em  Bm  Am7  Bm
        Em  Bm  Am7  Bm

[Primeira Parte]

Em               Bm        Am7        Bm
   All this time I've been hanging on
Em                 Bm          Am7
   To an edge I caught when we both were young
Bm                             Em
   That the world I want wasn't near enough
        D                C
All was distant, always off

[Segunda Parte]

Em                  Bm      Am7     Bm
   In all that war, I'd forgotten how
Em                 Bm          Am7
   Many men might die for what I'd renounced
Bm                         Em
   I was staging life as a battleground
     D                   C
No I let that grasping fall

[Refrão 1]

C            C7M(9)/B  Am7
May the last long      year be forgiven
C   C7M(9)/B  Am7
All that      war left within it
C  C7M(9)/B  Am7                   D
I  couldn't, though I'm beginning to

          C  C7M(9)/B  Am7
And we've only         made it together
C    C7M(9)/B  Am7
Feel some      change in the weather
C  C7M(9)/B  Am7                   D
I  couldn't, though I'm beginning to

[Tab - Riff]

E|----0--------0--------0--------0-----0-----0-----0-----0-----0-----0-----5-----5-----5-----5-----|
B|-1-----1--3-----3--5-----5--7-----7-----8-----10----12----12----12----10----10----10----10----10-|
G|-------------------------------------------------------------------------------------------------|
D|-------------------------------------------------------------------------------------------------|
A|-------------------------------------------------------------------------------------------------|
E|-------------------------------------------------------------------------------------------------|

E|-------------------------------------------------------------------------------------------------|
B|-------------------------------------------------------------------------------------------------|
G|----0--------0--------0--------0-----4-----5-----7-----7-----7-----5-----5-----5-----5-----5-----|
D|-2-----2--4-----4--5-----5--7-----7-----7-----7-----7-----7-----7-----7-----7-----7-----7-----7--|
A|-------------------------------------------------------------------------------------------------|
E|-------------------------------------------------------------------------------------------------|

[Terceira Parte]

Em                   Bm   Am7           Bm
  And though it's all so uncertain cold
Em                  Bm              Am7
  All the rafters cracked, all the copper sold
Bm                           Em
  There's a ration back in a manifold
        D              C
If you need it or forgot

[Refrão 2]

C            C7M(9)/B  Am7
May the last long      year be forgiven
C   C7M(9)/B  Am7
All that      war left within it
C  C7M(9)/B  Am7                   D
I  couldn't, though I'm beginning to

          C  C7M(9)/B  Am7
And we've only         made it together
C    C7M(9)/B  Am7
Feel some      change in the weather
C  C7M(9)/B  Am7                   D
I  couldn't, though I'm beginning to

[Ponte 2]

    Am/C       C7M/G   Bm  Am7
And somehow I  see     eee
     C7M   Bm Am7
It's free  eee

( Em  Bm  Am  Bm )
( Em  Bm  Am )

[Refrão 3]

         C    C7M(9)/B  Am7
And with love and       hate in the balance
C   C7M(9)/B  Am7
One last      way past the malice
C   C7M(9)/B  Am7                  D
One warm      day's all I really need

         C    C7M(9)/B  Am7
And with love and       hate in the balance
C   C7M(9)/B  Am7
One last      way past the malice
C   C7M(9)/B  Am7                  D
One warm      day's all I really need
Outros vídeos desta música
    78 exibições
      • ½ Tom
      • Am
      • Bbm
      • Bm
      • Cm
      • C#m
      • Dm
      • Ebm
      • Em
      • Fm
      • F#m
      • Gm
      • G#m
    • Adicionar à lista

    Afinação da cifra

    Afinador online

      0 comentários

      Ver todos os comentários

      Entre para o Cifra Club PRO

      Tenha acesso a benefícios exclusivos no App e no Site

      • Chega de anúncios

      • Badges exclusivas

      • Mais recursos no app do Afinador

      • Atendimento Prioritário

      • Aumente seu limite de lista

      • Ajude a produzir mais conteúdo

      Cifra Club Pro

      Aproveite o Cifra Club com benefícios exclusivos e sem anúncios
      Cifra Club Pro
      Aproveite o Cifra Club com benefícios exclusivos e sem anúncios
      Ops (: Contenido disponible sólo en portugués.
      OK