Cifra Club

The Chain

Fleetwood Mac

Cifra: Principal (violão e guitarra)
Tom: E (forma dos acordes no tom de D) Capotraste na 2ª casa
[Afinação] D A D G B D

[Intro] D7  D9

   D7
E|---------2-----------------------2--------|
B|-----1----------1----1h3-----1------------|
G|-------2----------2------------2----------|
D|---0----------0------------0--------------|
A|------------------------------------------|
E|-0----------0------------0----------------|

E|------------------------------------------|
B|-----1---1---1h3------1---1---1h3---------|
G|-------2---2------------2---2-------------|
D|---0----------------0---------------------|
A|------------------------------------------|
E|-0----------------0-----------------------|

E|---------2--------------------------------|
B|-----1-------1h3------1---1---1h3---------|
G|-------2---2------------2---2-------------|
D|---0----------------0---------------------|
A|------------------------------------------|
E|-0----------------0-----------------------|
   
   D9
E|--------------x---------------------------|
B|-------3------x---------------------------|
G|-----2--------x---------------------------|
D|---0--------0-x---------------------------|
A|--------3p0---x---------------------------|
E|-0----------------------------------------|

[Primeira Parte]

   D9        G/A       Am/D 
E|-0-----0-------5---3----------------------|
B|-3-----3-----3---3--------10--------------|
G|-2-----2----------------9----9------------|
D|-0-----0----------------------------------|
A|-0-3p0------------------------------------|
E|-0-------3/5---------10-------------------|

   Gm/C           D9
E|----------------0------0------------------|
B|-8-----8---8----3------3------------------|
G|---7---------7--2------2------------------|
D|----------------0------0------------------|
A|----------------0--3p0--------------------|
E|-8---8---8------0-------------------------|

   D9        G/A       Am/D 
E|-0-----0-------5---3----------------------|
B|-3-----3-----3---3--------10--------------|
G|-2-----2----------------9----9------------|
D|-0-----0----------------------------------|
A|-0-3p0------------------------------------|
E|-0-------3/5---------10-------------------|

   Gm/C           D9
E|----------------0-------------------------|
B|-8-----8---8----3----3---6----------------|
G|---7---------7--2--2---5---7~-------------|
D|----------------0-------------------------|
A|----------------0-------------------------|
E|-8---8---8------0-------------------------|

D9                     G/A
  Listen to the wind blow
           C/D    Bb/C  D9
Watch the sun rise
               G/A
Run in the shadows
                           Am/D  Gm/C
Damn your love, damn your lies

[Refrão]

        Gm/A
And if you don't love me now
                
You will never love me again
        D9            Bb/C
I can still hear you saying
           C9
You would never break the chain

        Gm/A
And if you don't love me now

You will never love me again
        D9            Bb/C
I can still hear you saying
           C9
You would never break the chain

( D7  D9 )
   
   D7
E|------------------------------------------|
B|---------1------1---1---1h3---------------|
G|-----2------------2---2-------------------|
D|---0---0------0---------------------------|
A|------------------------------------------|
E|-0----------0-----------------------------|
                             
                                D9
E|------------------------------0-----------|
B|-----1---1---1h3--------3-----3-----------|
G|-------2---2----------2-------2-----------|
D|---0----------------0---------0-----------|
A|--------------------------3p0-------------|
E|-0----------------0-----------------------|

[Segunda Parte]

D9                     G/A
  Listen to the wind blow
      C/D           Bb/C  D9
Down comes the night
               G/A
Run in the shadows
                           C/D  Bb/C  D9
Damn your love, damn your lies
             G/A
Break the silence
                         C/D  Bb/C  D9
Damn the dark, damn the light

[Refrão]

        Gm/A
And if you don't love me now
                
You will never love me again
        D9            Bb/C
I can still hear you saying
           C9
You would never break the chain

        Gm/A
And if you don't love me now

You will never love me again
        D9            Bb/C
I can still hear you saying
           C9
You would never break the chain

        Gm/A
And if you don't love me now
                
You will never love me again
        D9            Bb/C
I can still hear you saying
           C9
You would never break the chain

( D9  D5+  D9  D5+ )
( D9  D5+  D9  D5+ )

[Solo] D9  Gm/A  Bb  D9
       Gm/A  Bb  D9

[Terceira Parte]

Gm/A  Bb                   D9           
        Chains keeps us together
Running in the shadows
Gm/A  Bb                   D9           
        Chains keeps us together
Running in the shadows
Gm/A  Bb                   D9           
        Chains keeps us together
Running in the shadows
Gm/A  Bb                   D9           
        Chains keeps us together
Running in the shadows
exibições 28.334
Acordes para:
    Composição: Stevie Nicks Colaboração e revisão:
    • Thiago Almeida
    • Júlio César

    0 comentários

    mostrar mais comentários

    Conseguiu tocar?

    3 tocaram 10 ainda não

    Grave um vídeo tocando The Chain e mande pra gente!

    00:00 / 00:00
    outros vídeos desta música
    repetir qualidade Automático
    Outros vídeos desta música
    00:00 / 00:00
    Automático
    OK