Cifra Club

Aprenda

Float

Flogging Molly

Cifra: Principal (violão e guitarra)
Tom: C
Am7: x02213
Am6: x02212
Dm7: xx0211
Am : x02210
C  : x30210
G  : 3x0003
Dm : xx0231
F  : xx3211

   |   |   |   |   |   |   |   |   |
e|-----3-----3-3-3-----3-----3-3-3-|
B|-----1-----1-1-1-----1-----1-1-1-|
G|-----2-----2-2-2-----2-----2-2-2-|
D|-----2-----2-2-2-----2-----2-2-2-|
A|-0---------------0---------------|
E|---------------------------------|

INTRO:

Am7 - Am6 - Dm7 - Am

Am7
Drink away the rest of the day,
Am6
Wonder what my liver would say,
Dm7                 Am
Drink, It's All you can.

Am7
Blackened days With their bigger gales,
Am6
Blow in your parlor to discust the day,
Dm7                   Am
Listen that's all you can.

       C                         G
Ah but don't, no don't sink the boat,
          Dm                       Am
That you built, you built to keep afloat,
       C                        G
Ah no don't, no don't sink the boat,
          Dm          Dm
That you built...

Am7
Sick and tired of what to say,
Am6
No one listens anyway,
Dm7                      Am
Sayin'... that's all you can.

Am7
Rambling years of lousy luck,
Am6
You miss the smell of burning turf,
Dm7                     Am
Dream... that's all you can.

   Am7      Am6      Dm7                Am
e|--------|--------|------------------|------------|
B|--------|--------|------------------|------------|
G|--------|--------|------------------|------------|
D|-5------|-4------|-3----------5-3-0-|-2----------|   x2
A|--------|--------|------------------|------------|
E|--------|--------|------------------|------------|

Am - C - Dm - Am  x2

VIolino (2x):
  Am                                 C
   |   |   |   |   |   |   |   |   |   |   |   |   |   |   |   |   |   |
e|---------------------------------|-----------------------------------|
B|-----5---5-----6-565-------------|-------5---5-----6-565-------------|
G|---------------------7---5-------|-----------------------7---5-------|
D|-----------------------------7---|-------------------------------7---|
A|---------------------------------|-----------------------------------|
E|---------------------------------|-----------------------------------|

  Dm                                 Am
   |   |   |   |   |   |   |   |   |   |   |   |   |   |   |   |   |   |
e|---------------------------------|-----------------------------------|
B|-----5---5-----6-565-------------|-----------------------------------|
G|---------------------7---5---4---|-----------------------------------|
D|---------------------------------|---7-----------7-------------------|
A|---------------------------------|-----------------------------------|
E|---------------------------------|-----------------------------------|

Am7
Singled out for who you are,
Am6
Takes all types to judge a man,
Dm7                    Am
Feel... that's all you can.

Am7
Fill your sense with biggest ears,
Am6
Hide behind their own worst fears,
Dm7                    Am
Live... that's all you can.

   Am7   | Am6   | Dm7     | Am    | Am7   | Am6   | Dm7     | Am       |
e|-------|-------|---------|-------|-------|-------|---------|----------|
B|-------|-------|---------|-------|-------|-------|---------|----------|
G|-------|-------|---------|-------|-------|-------|---------|----------|
D|-5~~~--|-4~~~--|-3~~~--0-|-2~~~--|-5~~~--|-4~~~--|-3~~~--0-|-2~~~---2-|
A|-------|-------|---------|-------|-------|-------|---------|----------|
E|-------|-------|---------|-------|-------|-------|---------|----------|

BRIDGE:

F - Am - F - Dm - Am

F            Am
It's all you can
F            Dm     Am
It's all you can... do.

  F                 Am                F                 Dm        Am
   |   |   |   |     |   |   |   |     |   |   |   |     | | | |  | | | |
e|-----------------|---------0-------|-----------------|---------|--------|
B|-----------------|-----------------|-----------------|---------|--------|
G|-45------5---5-4-|-----------------|-----------------|---------|--------|
D|-----------------|-2-------------2-|-3-----------3-2-|-0-------|--------|
A|-----------------|-----------------|-----------------|---------|-3------|
E|-----------------|-----------------|-----------------|---------|--------|

  F             Am            F             Dm            Am
   |  |  |  |    |  |  |  |    |  |  |  |    |  |  |  |    | | | |
e|-------------|-------------|-------------|-------------|---------|
B|----------1--|-------------|----------1--|----------3--|---------|
G|-------2-----|-------2-----|-------2-----|-------2-----|---------|
D|-3-----------|-2----------2|-3-----------|-0-----------|---------|
A|-------------|-------------|-------------|-------------|-3-------|
E|-------------|-------------|-------------|-------------|---------|

Am - C - Dm - Am  x2

Violino (2x):
  Am                                 C
   |   |   |   |   |   |   |   |   |   |   |   |   |   |   |   |   |   |
e|---------------------------------|-----------------------------------|
B|-----5---5-----6-565-------------|-------5---5-----6-565-------------|
G|---------------------7---5-------|-----------------------7---5-------|
D|-----------------------------7---|-------------------------------7---|
A|---------------------------------|-----------------------------------|
E|---------------------------------|-----------------------------------|

  Dm                                 Am
   |   |   |   |   |   |   |   |   |   |   |   |   |   |   |   |   |   |
e|---------------------------------|-----------------------------------|
B|-----5---5-----6-565-------------|-----------------------------------|
G|---------------------7---5---4---|--------------(4---45------45--4)--|
D|---------------------------------|---7-------------------------------|
A|---------------------------------|-----------------------------------|
E|---------------------------------|-----------------------------------|

   Am7
No matter where i put my head,
  Am6
I wake up feeling sound again,
Dm7                    Am
Breath... it's all you can.

Am7
Tomorrow smells of a lester cade,
Am6
Reach the bowls but glooming frame,
   Dm7                       Am
Be thankful... that's all we can.

       C                        G
Ah but don't, no don't sink the boat,
         Dm                        Am
That you Built, you built to keep afloat,
      C                        G
Ah no don't, no don't sink the boat,
         Dm                          Am
That you built... you built to keep afloat.
      C                        G
Ah no don't, no don't sink the boat,
         Dm    Dm
That you built... that you built to keep afloat.


  C                 G            Dm           Am
   |   |   |   |     |  |  |  |   |  |  |  |   |   |   |   |
e|-----------------|------------|------------|-----------------|
B|---------------3-|------------|------------|-----------------|
G|-5-----4-5---5---|-4----------|------------|-------------2-4-|
D|-----------------|------------|------------|-----------------|
A|-----------------|------------|-5-----5----|-3-------3-------|
E|-----------------|------------|------------|-----------------|

  C                 G            Dm              Am
   |   |   |   |     |  |  |  |   |  |  |  |      |   |   |    |
e|-----------------|------------|---------------|------------------|
B|---------------3-|-0----------|---------------|------------------|
G|-5-----4-5---5---|-----0------|---------------|---------2420-2-4-|  242 and
D|-----------------|-------0----|---------------|------------------|  575 are
A|-----------------|------------|-5-----5--575--|-3----------------| triplets
E|-----------------|------------|-------------7-|------------------|

  C                 G            Dm              Dm
   |   |   |   |     |  |  |  |   |  |  |  |      |   |   |    |
e|-----------------|------------|---------------|------------------|
B|---------------3-|-0----------|---------------|------------------|
G|-5-----4-5---5---|-----0------|---------------|------------------|
D|-----------------|-------0----|---------------|------------------|
A|-----------------|------------|-5-----5--575--|-5-------5--------|
E|-----------------|------------|-------------7-|------------------|

Am - C - Dm - Am  x2

            Am
a ripe old age
           C
a ripe old age             with fiddle playing RIFF1
           Dm
a ripe old age
              Am
that's what I am

           Am
a ripe old age
           C
a ripe old age             with fiddle playing RIFF2
           Dm
a ripe old age
                      Am
just doing the best I can

RIFF1...
  Am             C              Dm             Am
e|-17-----------|-15-----------|-10-------12--|-------------|
B|--------------|-----------10-|--------------|-13----------|
G|--------------|--------------|--------------|-------------|
D|--------------|--------------|--------------|-------------|
A|--------------|--------------|--------------|-------------|
E|--------------|--------------|--------------|-------------|

           Am
a ripe old age
           C
a ripe old age              RIFF1
           Dm
a ripe old age
              Am
that's what I am

           Am
a ripe old age
           C
a ripe old age              RIFF2
           Dm
a ripe old age
                      Am
just doing the best I can

  Am              C            Dm           Am
e|---------------|------------|------------|-----------|
B|-8/10--------8\|-5----------|-3-------/6\|-1---------|
G|---------------|------------|------------|-----------|
D|---------------|------------|------------|-----------|
A|---------------|------------|------------|-----------|
E|---------------|------------|------------|-----------|
Até o Final.
Colaboração e revisão:
  • steingt s
5.576 exibições
    • ½ Tom
    • A
    • Bb
    • B
    • C
    • Db
    • D
    • Eb
    • E
    • F
    • F#
    • G
    • Ab
  • Adicionar à lista

    0 comentários

    Mostrar mais comentários

    Conseguiu tocar?

    1 Tocaram 0 Ainda não

    Grave um vídeo tocando Float e mande pra gente!

    00:00 / 00:00
    outros vídeos desta música
    repetir qualidade Automático
    Outros vídeos desta música
    00:00 / 00:00
    Automático

    Cifra Club Pro

    Aproveite o Cifra Club com benefícios exclusivos e sem anúncios
    7 dias grátis
    Cifra Club Pro
    Aproveite o Cifra Club com benefícios exclusivos e sem anúncios
    7 dias grátis
    OK