Cifra Club

¿Qué esconde el conde?

Floricienta

Cifra: Principal (violão e guitarra)
tom: Ebm
Bbm 

E|--------------------------------------------|
B|--------------------------------------------|
G|---0-2-3-3-2-2-1-1-0--(4| veces)-----0-2-3v--
D|-3--------------------------------3---------|
A|--------------------------------------------|
E|--------------------------------------------|

               Bbm 
A veces me pregunto conde dónde estás tú, no sé si no te veo
Me apagaron la luz, jugamos a escondernos y vivimos
                   F 
En un eterno desencuentro, no hay forma de entendernos
Nos ladramos los dos, no recibo las seás de tu corazón
No encuentro los caminos, ya no sé dónde voy
                    Bbm 
Ay conde, no te entiendo


   Ebm 
Egoísta, generoso, caballero, medieval
      Bbm 
Eres dulce, cariñoso y a veces me tratas mal
           Gb                 F                 Bb 
Serás un príncipe azul, pero te disfrazas de animal

  C ☺ R ☻

                 Eb                          Bb 
¿Qué esconde el conde? (dónde), ¿quién sabe dónde? (dónde)
             Eb                          Bb         Bb7 
Con sus mil caras pasa la vida en un carnaval (ay ay ay ay)
        Eb             A              Bb        A     G  
Máximo gusto si no te gusto yo me disgusto, ya lo verás
         Eb              F             Bb 
Máximo gusto te daré un susto hípermortal

Bbm 

E|--------------------------------------------|
B|--------------------------------------------|
G|---0-2-3-3-2-2-1-1-0--(4| veces)-----0-2-3v--
D|-3--------------------------------3---------|
A|--------------------------------------------|
E|--------------------------------------------|


Bbm 
A veces me pregunto conde dónde estás tú, no sé si no te veo
Me apagaron la luz, jugamos a escondernos y vivimos
                   F 
En un eterno desencuentro, me tiene confindida tu forma de ser
Te estudio, te analizo y no sé cómo hacer para estar cerca tuyo
                                   Bbm 
Necesito aprender a descubrir misterios



  Ebm 
Egoísta, generoso, caballero, medieval
      Bbm 
Eres dulce, cariñoso y a veces me tratas mal
           Gb                 F                 Bb 
Serás un príncipe azul, pero te disfrazas de animal

  C ☺ R ☻

                 Eb                          Bb 
¿Qué esconde el conde? (dónde), ¿quién sabe dónde? (dónde)
             Eb                          Bb         Bb7 
Con sus mil caras pasa la vida en un carnaval (ay ay ay ay)
        Eb             A              Bb        A     G  
Máximo gusto si no te gusto yo me disgusto, ya lo verás
         Eb              F             Bb 
Máximo gusto te daré un susto hípermortal


Música (mismos acordes del coro)

CORO:....

Bbm 

E|--------------------------------------------|
B|--------------------------------------------|
G|---0-2-3-3-2-2-1-1-0--(4| veces)-----0-2-3v--
D|-3--------------------------------3---------|
A|--------------------------------------------|
E|--------------------------------------------|
00:00 / 00:00
Outros vídeos desta música
Repetir
Outros vídeos desta música
Composição de Lol
19 exibições
    • ½ Tom
    • Am
    • Bbm
    • Bm
    • Cm
    • C#m
    • Dm
    • Ebm
    • Em
    • Fm
    • F#m
    • Gm
    • G#m
  • Adicionar à lista

    0 comentários

    Ver todos os comentários

    Conseguiu tocar?

    0 Tocaram 0 Ainda não

    Grave um vídeo tocando ¿Qué esconde el conde? e nos envie!

    Entre para oCifra Club PRO

    Tenha acesso a benefícios exclusivos no App e no Site

    • Chega de anúncios

    • Prioridade de compra em lançamentos

    • Mais recursos no app do Afinador

    • Atendimento Prioritário

    • Descontos nos produtos Cifra Club

    • Ajude a produzir mais conteúdo

    00:00 / 00:00

    Cifra Club Pro

    Aproveite o Cifra Club com benefícios exclusivos e sem anúncios
    Cifra Club Pro
    Aproveite o Cifra Club com benefícios exclusivos e sem anúncios
    OK