Cifra Club

Flores Amarillas

Floricienta

Cifra: Principal (violão e guitarra)
tom: B
♫♫ INTRO ♫♫ 
  F#         D#m        G#m          C# 
e)--6v---------------------------------------- 
b)-------9-7-6b---------7v--6----------------- 
g)---------------8v------------9-6-7b--6v----- 
d)-------------------------------------------- 
a)-------------------------------------------- 
E)-------------------------------------------- 
 
 
♪♪♪ riff1 ♪♪♪      ♪♪♪ riff2 ♪♪♪ 
 
e)5s6---4s2-4s6---|---5s6-4-2-2--| 
b)6s7---5s3-5s7---|---6s7-5-3-2--| 
g)----------------|--------------| 
d)----------------|--------------| 
a)----------------|--------------| 
E)----------------|--------------| 
 
 F#                                      D#m 
Él la estaba esperando con una flor amarilla 
G#m                                        C#    riff1 
Ella lo estaba soñando con la luz en su pupila 
F#                                       D#m 
Y el amarillo de el sol iluminaba la esquina ( la esquina) 
G#m                                     C#  C#7   riff2 
Lo sentía tan cercano, lo sentía desde niña 
 
 
 ♪♪♪ CORO ♪♪♪ 
        F#                         A#m 
Ella sabía que él sabía que algún día pasaría, 
         C#m                    F#7       B    B9/7 
Que vendría a buscarla con sus flores amarillas, 
        G#m                      C# 
No te apures, no detengas el instante del encuentro, 
      A#m                          D#m 
está dicho que es un hecho, no la pierdas, no hay derecho, 
         G#m          B 
No te olvides que la vida 
      G#m     B      C#  C#7   riff2 
Casi nunca está dormida 
 
 
♫♫ INTRO ♫♫ 
 
  F#         D#m        G#m          C# 
e)--6v---------------------------------------- 
b)-------9-7-6b---------7v--6----------------- 
g)---------------8v------------9-6-7b--6v----- 
d)-------------------------------------------- 
a)-------------------------------------------- 
E)-------------------------------------------- 
 
 
F#                                          D#m 
En ese bar tan desierto los esperaba el encuentro (el encuentro) 
G#m                                     C#      riff1 
Ella llegó en limosina, amarilla por supuesto 
F#                                         D#m 
Él se acercó de repente y la miró tan de frente (de frente) 
G#m                                   C#  C#7  riff2 
Toda una vida soñada y no pudo decir nada 
 
♪♪♪ CORO ♪♪♪....... 
 
♫♫ SOLO ♫♫ 
        F#        A#m       C#m      F#7       B 
e)------------------------------6h7s(6)-6-7-9-6s-2v---2-4-6s7- 
b)-----/11v--11s-6v---11s-5v---------------------------------- 
g)-9s11------------------------------------------------------- 
d)------------------------------------------------------------ 
a)------------------------------------------------------------ 
E)------------------------------------------------------------ 
 
     G#m        C#m     C#7 
e)-6-7-7s9---6-7s9-7-6-6h7-6b- 
b)---------------------------- 
g)---------------------------- 
d)---------------------------- 
a)---------------------------- 
E)---------------------------- 
 
♪♪♪ CORO ♪♪♪....... 
 
        F#                 B 
Ella sabía, él sabía, él sabía, ella sabía 
        F#                       B             C#     B     F# 
Y él sabía, ella sabía y se olvidaron de sus flores amarillas
00:00 / 00:00
Outros vídeos desta música
Repetir
Outros vídeos desta música
Composição de Florencia Bertotti
25.110 exibições
    • ½ Tom
    • A
    • Bb
    • B
    • C
    • Db
    • D
    • Eb
    • E
    • F
    • F#
    • G
    • Ab
  • Adicionar à lista

    0 comentários

    Ver todos os comentários

    Conseguiu tocar?

    1 Tocaram 2 Ainda não

    Grave um vídeo tocando Flores Amarillas e nos envie!

    Entre para oCifra Club PRO

    Tenha acesso a benefícios exclusivos no App e no Site

    • Chega de anúncios

    • Prioridade de compra em lançamentos

    • Mais recursos no app do Afinador

    • Atendimento Prioritário

    • Descontos nos produtos Cifra Club

    • Ajude a produzir mais conteúdo

    00:00 / 00:00

    Cifra Club Pro

    Aproveite o Cifra Club com benefícios exclusivos e sem anúncios
    Cifra Club Pro
    Aproveite o Cifra Club com benefícios exclusivos e sem anúncios
    OK