Cifra Club

Por Qué?

Floricienta

Cifra: Principal (violão e guitarra)
tom: E

E|-4---2-0-2--(4s)7-4---2-0----0-------------0-------4-2-2----0-------2~s4--|
B|---------------------------4---4-0-2-----4---------------------4----------|
G|---------------------------------------------4----------------------------|
D|--------------------------------------------------------------------------|
A|--------------------------------------------------------------------------|
E|--------------------------------------------------------------------------|

C#m                B                    (Riff 1)
Miro caer las gotas de lluvia en mi ventana
A                    E                B
se que todo sera igual no cambiará mañanaaa...


C#m                   B                  (Riff 1)
El sol volverá a salir la luna será mas blanca
A                  E                 B       (Riff 2)
el rio será mas rio no caerán las montañaas...


                    E        B               C#m
Por que me quedo mudaaaa... prendida en tu miradaaaa..
                  A                                     B
por que todo es lejanoo...por que sin ti ya no hay mas nada..
                       E      B                C#m
Por que no existen hadaaas... ni principes ni sueños..
A                  E                B                     E  B
por que todo es mentira por que sin ti ya no hay mas vida...


E|-----------12-----------------------------| |--------|
B|-7s9--9s10----12--10-9--------------------| |--7~s9--|
G|------------------------9h11r9------------| |--------|
D|---------------------------------9s11s9~--| |--------|
A|------------------------------------------| |--------|
E|------------------------------------------| |--------|

C#m                       B                   (Riff 1)
Un dia profundo y claro.. llegarás a buscarme
A                   E                    B
C#m                B                  (Riff 1)
Tu seguirás allí.. yo seguiré soñando
A                  E                      B
ese beso que al final te robaré mientras tanto...


                    E        B               C#m
Por que me quedo mudaaaa... prendida en tu miradaaaa..
                  A                                     B
por que todo es lejanoo...por que sin ti ya no hay mas nada..
                       E      B                C#m
Por que no existen hadaaas... ni principes ni sueños..
A                  E                B                    E    B
por que todo es mentira por que sin ti ya no hay mas vida...
                E       B      A     E    B
ya no hay mas vida.... la na na na na na na nanana naaaaa  [Bis] (Riff 1)


                    E        B               C#m
Por que me quedo mudaaaa... prendida en tu miradaaaa..
                  A                                     B
por que todo es lejanoo...por que sin ti ya no hay mas nada..
                       E      B                C#m
Por que no existen hadaaas... ni principes ni sueños..
A                  E                B                   E   B
por que todo es mentira por que sin ti ya no hay mas vida...
                E       B      A     E       B              (Riff 3)
ya no hay mas vida.... la na na na na na na nanana naaaaa


E|-----------------------------------------------------|

Riff 1:

E|-12----------------|
B|----12---------12--|
G|--------14--13-----|
D|-------------------|
A|-------------------|
E|-------------------|


Riff 2:

E|-9--9r7-------|
B|--------------|
G|--------------|
D|--------------|
A|--------------|
E|--------------|

Riff 3:

E|-12----------|
B|----12-------|
G|--------14b--|
D|-------------|
A|-------------|
E|-------------|


Acordes:


   C#m  B   A    E

e---4---7---5---7(7)---
B---5---7---5---9(7)---
G---6---8---6---9(9)---
D---6---9---7---9(9)---
A---4---9---7---7(7)---
E---4---7---5---7(7)---
E|-----------------------------------------------------|
00:00 / 00:00
Outros vídeos desta música
Repetir
Outros vídeos desta música
Composição de Carlos Nilson / Maria Cristina De Giacomi
Colaboração e revisão:
  • Arthur Mello
17.252 exibições
    • ½ Tom
    • A
    • Bb
    • B
    • C
    • Db
    • D
    • Eb
    • E
    • F
    • F#
    • G
    • Ab
  • Adicionar à lista

    0 comentários

    Ver todos os comentários

    Conseguiu tocar?

    3 Tocaram 0 Ainda não

    Grave um vídeo tocando Por Qué? e nos envie!

    Entre para oCifra Club PRO

    Tenha acesso a benefícios exclusivos no App e no Site

    • Chega de anúncios

    • Prioridade de compra em lançamentos

    • Mais recursos no app do Afinador

    • Atendimento Prioritário

    • Descontos nos produtos Cifra Club

    • Ajude a produzir mais conteúdo

    00:00 / 00:00

    Cifra Club Pro

    Aproveite o Cifra Club com benefícios exclusivos e sem anúncios
    Cifra Club Pro
    Aproveite o Cifra Club com benefícios exclusivos e sem anúncios
    OK