Cifra Club

Aprenda

Alone + Easy Target

Foo Fighters

Cifra: Principal (violão e guitarra)
tom: C
(Drop D Tuning)

Intro
E|--8-8-8--8-8----8-8----8-8----------|----------0------------------0-------||
B|--7-7-7--8-7----7-8----7-8----------|----------0------------------0-------||
G|--7-7-7--7-7----7-7----7-7----------|-3-3--3------3-3-3--1-1--1-----------||
D|--0-0-0--0-0----0-0----0-0----------|-4-4--4------4-4-4--2-2--2-----------||
A|------------------------------------|-4-4--4------4-4-4--2-2--2-----------||
D|------------------------------------|-------------------------------------||

Verse
   (Gtr. 1)
E|--8-8-8--8-8----8-8----8-8----------|----------0------------------0-------||
B|--7-7-7--8-7----7-8----7-8----------|----------0------------------0-------||
G|--7-7-7--7-7----7-7----7-7----------|-3-3--3------3-3-3--1-1--1-----------||
D|--0-0-0--0-0----0-0----0-0----------|-4-4--4------4-4-4--2-2--2-----------||
A|------------------------------------|-4-4--4------4-4-4--2-2--2-----------||
D|------------------------------------|-------------------------------------||

 ||(Gtr. 2)
E|--3--2--3--2--3--2--3--2------------|-------0------------0------||
B|--3--3--3--3--3--3--3--3------------|-----2---2--------1---1----||
G|--2--2--2--2--2--2--2--2------------|---3-------3----0-------0--||
D|------------------------------------|-4------------2------------||
A|------------------------------------|---------------------------||
D|------------------------------------|---------------------------||

Chorus
E|----------------------------------------------------------------|
B|----------------------------------------------------------------|
G|----------------------------------------------------------------|
D|-0---0---0---3---5---5---5---3---0---0---0---3---7---7---7---7--|
A|-0---0---0---3---5---5---5---3---0---0---0---3---7---7---7---7--|
D|-0---0---0---3---5---5---5---3---0---0---0---3---7---7---7---7--|
       Head    is   on                 I  want      out.

E|-------------------------|---------------------------||
B|-------------------------|---------------------------||
G|-------------------------|---------------------------||
D|-3------3---3------3---3-|-10-----10--10-----10--10--||
A|-3------3---3------3---3-|-10-----10--10-----10--10--||
D|-3------3---3------3---3-|-10-----10--10-----10--10--||
   I'm  alone   and I'm an   easy target...

Bridge
E|-------------------------------------------------||
B|-------------------------------------------------||
G|-------------------------------------------------|| (x3)
D|--5--5--5--5---5--5--5--5---5--5--5--5---5--3~~--||
A|--5--5--7--5---5--7--5--5---7--5--5--7---5--3~~--||
D|--5--5--5--5---5--5--5--5---5--5--5--5---5--3~~--||
   Did you ever listen ?

E|--------------------------------------------------||
B|--------------------------------------------------||
G|--------------------------------------------------||
D|--7--7--7--7---7--7--7--7---7--7--7--7---10--9~~--|| (x4)
A|--7--7--7--7---7--7--7--7---7--7--7--7---10--9~~--||
D|--7--7--7--7---7--7--7--7---7--7--7--7---10--9~~--||
   Get out! Get out! Get out!


Composição de Dave Grohl
Colaboração e revisão:
  • Guillermo Coquito
13.478 exibições
    • ½ Tom
    • A
    • Bb
    • B
    • C
    • Db
    • D
    • Eb
    • E
    • F
    • F#
    • G
    • Ab
  • Adicionar à lista

    0 comentários

    Ver todos os comentários
    00:00 / 00:00
    outros vídeos desta música
    repetir qualidade Automático
    Outros vídeos desta música
    00:00 / 00:00
    Automático

    Cifra Club Pro

    Aproveite o Cifra Club com benefícios exclusivos e sem anúncios
    Cifra Club Pro
    Aproveite o Cifra Club com benefícios exclusivos e sem anúncios
    OK