Cifra Club

Aprenda

Arlandria

Foo Fighters

Tab de baixo: Principal
[Intro]

Parte 1 de 1

G|--------------------------------------------|
D|-----6-4-6-------6-4----------6-4-6---------|
A|-4-7-------4-4-7-----7-4--4-7-------4-------|
E|--------------------------------------------|

G|--------------------------------------------|
D|-----6-4-6----------------------------------|
A|-4-7-------7/14--4--------------------------|
E|--------------------------------------------|

[Primeira Parte]

Ain't that the way it always starts?

Parte 1 de 1 - 2x

G|--------------------------------------------|
D|--------------------------------------------|
A|-4-4-4--------------------------------------|
E|-------5-5-5-5-5--0-0-0--2-2-2-2-2----------|

[Pré-Refrão]

Parte 1 de 2

You used to say I couldn't save you enough...

G|--------------------------------------------|
D|--------------------------------------------|
A|-4-4-4-4--4-4-4-----------------------------|
E|----------------0-5-5-5-5--5-5-5--7---------|

G|--------------------------------------------|
D|--------------------------------------------|
A|-------------------2-2-2-2-2----------------|
E|-0-0-0-0--0-0-0-0-------------2-2-2---------|

Parte 2 de 2

G|--------------------------------------------|
D|--------------------------------------------|
A|-4-4-4-4--4-4-4-----------------------------|
E|----------------0-5-5-5-5--5-5-5--7---------|

G|--------------------------------------------|
D|--------------------------------------------|
A|-------------------2-2-2-2--3-3-3-3---------|
E|-0-0-0-0--0-0-0-0---------------------------|

[Refrão]

You are not me...

Parte 1 de 2

G|--------------------------------------------|
D|--------------------------------------------|
A|-4-4-4-4--4-4-4-----------------------------|
E|----------------0-2-2-5-2-0-2-4-------------|

G|--------------------------------------------|
D|--------------------------------------------|
A|-------------------2-2-2-2--3-3-3-3---------|
E|-5-5-5-5--5-5-5-5---------------------------|

Parte 2 de 2

G|--------------------------------------------|
D|--------------------------------------------|
A|-4-4-4-4--4-4--2----------------------------|
E|-----------------3--2-2-5-2-0-2-4-----------|

G|--------------------------------------------|
D|--------------------------------------------|
A|-------------------2-2-2-2--3-3-3-3---------|
E|-5-5-5-5--5-5-5-5---------------------------|

[Intro 2]

Parte 1 de 1

G|--------------------------------------------|
D|--------------------------------------------|
A|-4----4--------------4----4-----------------|
E|---5----5--0-0-0--2----5----5--0-0-0-2h4-2--|

[Segunda Parte]

Chase all of those memories away...Whait!!

Parte 1 de 1 - 5x

G|--------------------------------------------|
D|--------------------------------------------|
A|-4-4-4--------------------------------------|
E|-------5-5-5-5-5--0-0-0--2-2-2-2-2----------|

[Pré-Refrão 2]

Parte 1 de 2

You used to say I couldn't save you enough...

G|--------------------------------------------|
D|--------------------------------------------|
A|-4-4-4-4--4-4-4-----------------------------|
E|----------------0-5-5-5-5--5-5-5--7---------|

G|--------------------------------------------|
D|--------------------------------------------|
A|-------------------2-2-2-2-2----------------|
E|-0-0-0-0--0-0-0-0-------------2-2-2---------|

Parte 2 de 2

G|--------------------------------------------|
D|--------------------------------------------|
A|-4-4-4-4--4-4-4-----------------------------|
E|----------------0-5-5-5-5--5-5-5--7---------|

G|--------------------------------------------|
D|--------------------------------------------|
A|-------------------2-2-2-2--3-3-3-3---------|
E|-0-0-0-0--0-0-0-0---------------------------|

[Refrão 2]

You are not me...

Parte 1 de 2

G|--------------------------------------------|
D|--------------------------------------------|
A|-4-4-4-4--4-4-4-----------------------------|
E|----------------0-2-2-5-2-0-2-4-------------|

G|--------------------------------------------|
D|--------------------------------------------|
A|-------------------2-2-2-2--3-3-3-3---------|
E|-5-5-5-5--5-5-5-5---------------------------|

Parte 2 de 2

G|--------------------------------------------|
D|--------------------------------------------|
A|-4-4-4-4--4-4--2----------------------------|
E|-----------------3--2-2-5-2-0-2-4-----------|

G|--------------------------------------------|
D|----------------2---------------------------|
A|------------2h4----2-2-2-2--3-3-3-3---------|
E|-5-5-5-5--5---------------------------------|

[Terceira Parte]

Parte 1 de 2

My sweet Virginia...

G|--------------------------------------------|
D|--------------------------------------------|
A|-4-4-4-4--4-4-4------------------7----------|
E|----------------0-5-5-5-5--5-7h9------------|

G|--------------------------------------------|
D|--------------------------------------------|
A|-------------------2-2-2-2-2----------------|
E|-0-0-0-0--0-0-0-0-------------2-2-2---------|

Parte 2 de 2

G|--------------------------------------------|
D|--------------------------------------------|
A|-4-4-4-4--4-4-4------------------7----------|
E|----------------0-5-5-5-5--5-7h9------------|

G|--------------------------------------------|
D|--------------------------------------------|
A|-------------------2-2-2-2--3-3-3-3--4\-----|
E|-0-0-0-0--0-0-0-0---------------------------|

[Quarta Parte]

Shame, shame, go away...

Parte 1 de 3 - 4x 

G|--------------------------------------------|
D|--------------------------------------------|
A|-4-4-4--------------------------------------|
E|-------5-5-5-5-5--0-0-0--2-2-2-2-2----------|

Parte 2 de 3

G|--------------------------------------------|
D|--------------------------------------------|
A|-4-4-4------------7-7-7--9-9-9-9-9----------|
E|-------5-5-5-5-5----------------------------|

Parte 3 de 3

G|--------------------------------------------|
D|-11-11-11------------------14-14-14---------|
A|-----------12-12-12-12-12-------------------|
E|--------------------------------------------|

G|--------------------------------------------|
D|-16-16-16-16-16-----------------------------|
A|--------------------------------------------|
E|--------------------------------------------|

[Pré-Refrão 3]

Parte 1 de 2

You used to say I couldn't save you enough...

G|--------------------------------------------|
D|--------------------------------------------|
A|-4-4-4-4--4-4-4-----------------------------|
E|----------------0-5-5-5-5--5-5-5--7---------|

G|--------------------------------------------|
D|--------------------------------------------|
A|-------------------2-2-2-2-2----------------|
E|-0-0-0-0--0-0-0-0-------------2-2-2---------|

Parte 2 de 2

G|--------------------------------------------|
D|--------------------------------------------|
A|-4-4-4-4--4-4-4-----------------------------|
E|----------------0-5-5-5-5--5-5-5--7---------|

G|--------------------------------------------|
D|--------------------------------------------|
A|-------------------2-2-2-2--3-3-3-3---------|
E|-0-0-0-0--0-0-0-0---------------------------|

[Refrão 4]

You are not me...

Parte 1 de 2 - 2x 

G|--------------------------------------------|
D|--------------------------------------------|
A|-4-4-4-4--4-4-4-----------------------------|
E|----------------0-2-2-5-2-0-2-4-------------|

G|--------------------------------------------|
D|--------------------------------------------|
A|-------------------2-2-2-2--3-3-3-3---------|
E|-5-5-5-5--5-5-5-5---------------------------|

Parte 2 de 2 - 2x 

G|--------------------------------------------|
D|--------------------------------------------|
A|-4-4-4-4--4-4--2----------------------------|
E|-----------------3--2-2-5-2-0-2-4-----------|
                                  .
G|--------------------------------------------|
D|----------------2---------------------------|
A|------------2h4----2-2-2-2--3-3-3-----------|
E|-5-5-5-5--5---------------------------------|
Composição de Foo Fighters
Colaboração e revisão:
  • Reginaldo Costa
  • Matt
4.761 exibições

0 comentários

Ver todos os comentários
00:00 / 00:00
Outros vídeos desta música
Repetir Qualidade Automático
Outros vídeos desta música
00:00 / 00:00
Automático
Capítulos
  • Tocando a música
  • Dicas Iniciais / Equipamentos
  • Introdução
  • Primeira Parte
  • Pré-Refrão - Parte 1 de 2
  • Pré-Refrão - Parte 2 de 2
  • Refrão - Parte 1 de 2
  • Refrão - Parte 2 de 2
  • Introdução
  • Refrão - Parte 1 de 2
  • Refrão - Parte 2 de 2
  • Terceira Parte - Parte 1 de 2
  • Terceira Parte - Parte 2 de 2
  • Quarta Parte - Parte 1 de 3
  • Quarta Parte - Parte 2 de 3
  • Quarta Parte - Parte 3 de 3
  • Refrão - Parte 1 de 2
  • Refrão - Parte 2 de 2
  • Encerramento
  • Ficha Técnica

Cifra Club Pro

Aproveite o Cifra Club com benefícios exclusivos e sem anúncios
Cifra Club Pro
Aproveite o Cifra Club com benefícios exclusivos e sem anúncios
OK