Notificações Amigos pendentes

      Foo Fighters

      Aurora

      27.237 exibições
      Tom: G
      
      
      Intro/Verse (I ain't finished, so this is the verse for now)
      
      e||---------------------------||
      b||---------------------------||
      g||--------6-7---9-----6-7----||
      d||--7-6-9-----7---9-7--------||
      a||--0-0-0-----0-----0--------||
      e||------------------------0--||
      
      
      Verse - Guitar 2 (w/delay, not as harsh as guitar 1)
      
      e|-7------------|-7---------------|-7------------7------|-7---------------|
      b|-10--9---9----|-10--10---9---10-|-10--9---10-----10---|-10--9---9---9---|
      g|-9-----9----9-|-9------9---9----|-9-----9----9------9-|-9-----9---9---9-|
      d|-7------------|-7---------------|-7-------------------|-7---------------|
      a|--------------|-----------------|---------------------|-----------------|
      e|--------------|-----------------|---------------------|-----------------|
      
      
      e|-7---------------|-7------------7---------|--0------------------|
      b|-10--10---10-----|-10--9----9-----10--9---|--10--10---10---10---|
      g|-9------9----9-9-|-9-----9----9---------9-|--9------9----9----9-|
      d|-7---------------|-7----------------------|--7------------------|
      a|-----------------|------------------------|---------------------|
      e|-----------------|------------------------|---------------------|
      
      
      
      Chorus
         (Gtr. 1)
      e||-----------------------------------------------|
      b||-----------------------------------------------|
      g||-14-14-14-14-14-14--13-13-13-13-13--13-11-11-9-|
      d||-----------------------------------------------|
      a||-12-12-12-12-12-12--11-11-11-11-11--11-9--9--7-|
      e||-----------------------------------------------|
       ||
       ||(Gtr. 2)
      e||-7--7--7--7--7--7---7-7-7-7-7--7-7-7-7--|
      b||-10-10-10-10-10-10--9-9-9-9-9--9-7-7-10-|
      g||-9--9--9--9--9--9---9-9-9-9-9--9-9-9-9--|
      d||-7--7--7--7--7--7---7-7-7-7-7--7-7-7-7--|
      a||----------------------------------------|
      e||----------------------------------------|
      Play twice then
      
         (Gtr. 1) 
      e||------------------------------------------|
      b||-3---3---3-3-3-3-3-3-7-7-7-10-10-10-10-10-|
      g||-2---2---2-2-2-4-4-4-7-7-7-11-11-11-9--11-|
      d||-0---0---0-0-0-0-0-0-0-0-0-0--0--0--0--0--|
      a||------------------------------------------|
      e||------------------------------------------|
       ||
       ||(Gtr. 2)
      e||---------------------------------------------|
      b||---------------------------------------------|
      g||---------7-7-7-9-9-9-11-11-11-14-14-14-14-14-|
      d||---------------------------------------------|
      a||---------5-5-5-7-7-7-9--9--9--12-12-12-12-12-|
      e||---------------------------------------------|
      
         (Gtr. 1)
      e||-----------------------------------------------|
      b||-----------------------------------------------|
      g||-14-14-14-14-14-14--13-13-13-13-13--13-11-11-9-|
      d||-----------------------------------------------|
      a||-12-12-12-12-12-12--11-11-11-11-11--11-9--9--7-|
      e||-----------------------------------------------|
       ||
       ||(Gtr. 2)
      e||-7--7--7--7--7--7---7-7-7-7-7--7-7-7-7--|
      b||-10-10-10-10-10-10--9-9-9-9-9--9-7-7-10-|
      g||-9--9--9--9--9--9---9-9-9-9-9--9-9-9-9--|
      d||-7--7--7--7--7--7---7-7-7-7-7--7-7-7-7--|
      a||----------------------------------------|
      e||----------------------------------------|
      
         (Gtr. 1)
      e||------------------------------|
      b||------------------------------|
      g||-7-6-4---4-6-7----------------|
      d||----------------7-6-4-2-------|
      a||-5-4-2-0-2-4-5----------4-2-0-|
      e||------------------------------|
       ||
       ||(Gtr. 2)
      e||-2-2-2-2-2-2-2----------------|
      b||-3-3-3-3-3-3-3--2-2-2-2-2-2-2-|
      g||-2-2-2-2-2-2-2--2-2-2-2-2-2-2-|
      d||-0-0-0-0-0-0-0--2-2-2-2-2-2-2-|
      a||----------------0-0-0-0-0-0-0-|
      e||------------------------------|
      
         (Gtr. 1)
      e||------------------------------|
      b||------------------------------|
      g||-7-6-4---4-6-7----------------|
      d||----------------7-6-4-2-2-----|
      a||-5-4-2-0-2-4-5----------------|
      e||------------------------------|
       ||
       ||(Gtr. 2)
      e||-2-2-2-2-2-2-2----------------|
      b||-3-3-3-3-3-3-3--2-2-2-2-2-2-2-|
      g||-2-2-2-2-2-2-2--2-2-2-2-2-2-2-|
      d||-0-0-0-0-0-0-0--2-2-2-2-2-2-2-|
      a||----------------0-0-0-0-0-0-0-|
      e||------------------------------|
      
         (Gtr. 1)
      e||------------------------------|
      b||------------------------------|
      g||-7-6-4---4-6-7----------------|
      d||----------------7-6-4-2-------|
      a||-5-4-2-0-2-4-5----------4-2-0-|
      e||------------------------------|
       ||
       ||(Gtr. 2)
      e||-2-2-2-2-2-2-2----------------|
      b||-3-3-3-3-3-3-3--2-2-2-2-2-2-2-|
      g||-2-2-2-2-2-2-2--2-2-2-2-2-2-2-|
      d||-0-0-0-0-0-0-0--2-2-2-2-2-2-2-|
      a||----------------0-0-0-0-0-0-0-|
      e||------------------------------|
      
         (Gtr. 1)
      e||----------------------|
      b||------------------2-0-|
      g||----0----0----2-0-----|
      d||----------------------|
      a||----------------------|
      e||----------------------|
       ||
       ||(Gtr. 2)
      e||-1----3-------|
      b||-1----3----2--|
      g||-2----0----2--|
      d||-3----0----2--|
      a||-3----2----0--|
      e||-1----3-------|
      
         (Gtr. 1)
      e||---------------|
      b||---------------|
      g||----0----0-----|
      d||---------------|
      a||---------------|
      e||---------------|
       ||
       ||(Gtr. 2)
      e||-1----3-------|
      b||-1----3----2--|
      g||-2----0----2--|
      d||-3----0----2--|
      a||-3----2----0--|
      e||-1----3-------|
      
      End of 2nd chorus
         (Gtr. 1)
      
      e||-------------|
      b||-------------|
      g||-------------|
      d||-------------|
      a||-4-4-4-4-2-0-|
      e||-------------|
      
      
      
      Bridge
         (Gtr. 1)
      e||-----0-----------------------0----|
      b||---0---0-------------------0---0--|
      g||-2-------2---------------1--------|
      d||----------------------------------|
      a||----------------------------------|
      e||----------------------------------|
       ||
       ||(Gtr. 2)
      e||---------------------------------------------|
      b||---------------------------------------------|
      g||---------------------------------------------|
      d||-4---------------------2---------------------|
      a||-4--------4-4-4-4-2-0--2---------4-4-4-4-2-0-|
      e||-2---------------------0---------------------|
      
         (Gtr. 1)
      e||------------|
      b||------------|
      g||---------0--|
      d||-----2------|
      a||-0----------|
      e||------------|
       ||
       ||(Gtr. 2)
      e||-------------------------------|
      b||------------2-2-2--------------|
      g||------------2-2-2--------------|
      d||-3-3-3-3-5--2-2-2--------------|
      a||-3-3-3-3-5--0-0-0--4-4-4-4-2-0-|
      e||-1-1-1-1-3---------------------|
      
         (Gtr. 1)
      e||-----0-----------------------0----|
      b||---0---0-------------------0---0--|
      g||-2-------2---------------1--------|
      d||----------------------------------|
      a||----------------------------------|
      e||----------------------------------|
       ||
       ||(Gtr. 2)
      e||---------------------------------------------|
      b||---------------------------------------------|
      g||---------------------------------------------|
      d||-4---------------------2---------------------|
      a||-4--------4-4-4-4-2-0--2---------4-4-4-4-2-0-|
      e||-2---------------------0---------------------|
      
         (Gtr. 1)
      e||------------|
      b||------------|
      g||---------0--|
      d||-----2------|
      a||-0----------|
      e||------------|
       ||
       ||(Gtr. 2)
      e||-------------------------------|
      b||------------2-2-2-2-2-2-2-2-2--|
      g||------------2-2-2-2-2-2-2-2-2--|
      d||-3-3-3-3-5--2-2-2-2-2-2-2-2-2--|
      a||-3-3-3-3-5--0-0-0-0-0-0-0-0-0--|
      e||-1-1-1-1-3---------------------|
      
      
      Outro
      
      e||-----------------------|
      b||-----------------------|
      g||-------6-7---9-----6-7-| Repeatedly
      d||-7-6-9-----7---9-7-----|
      a||-0-0-0-----0-----0-----|
      e||-----------------------|
      
      
      Later repeated accompanied by
      
      e||-7------------7------|
      b||-10--9---10-----10---|
      g||-9-----9----9------9-|
      d||-7-------------------|
      a||---------------------|
      e||---------------------|
      
      
      After build up on drums and bass
      
         (Gtr. 1)
      e||-7--7--7--7--7--7-7-7-7-7-7-7-|
      b||-10-10-10-10-10-9-9-9-9-9-9-9-|
      g||-9--9--9--9--9--9-9-9-9-9-9-9-|
      d||-7--7--7--7--7--7-7-7-7-7-7-7-|
      a||------------------------------|
      e||------------------------------|
       ||
       ||(Gtr. 2)
      e||-----------------------------------------------------------------------|
      B||-----------------------------------------------------------------------|
      G||-14-14-14-14-14-13-13-13-11-9-9-9--14-14-14-14-14-16-16-16-18-18-18-18-|
      D||-----------------------------------------------------------------------|
      A||-12-12-12-12-12-11-11-11-9--7-7-7--12-12-12-12-12-14-14-14-16-16-16-16-|
      E||-----------------------------------------------------------------------|
      
         (Gtr. 1)
      e||-7--7--7--7--7--7-7-7-7-7-7-7-|
      b||-10-10-10-10-10-9-9-9-9-9-9-9-|
      g||-9--9--9--9--9--9-9-9-9-9-9-9-|
      d||-7--7--7--7--7--7-7-7-7-7-7-7-|
      a||------------------------------|
      e||------------------------------|
       ||
       ||(Gtr. 2)
      e||-------------------------------------|
      B||-------------------------------------|
      G||-14-14-14-14-14-16-16-16-18-18-18-18-|
      D||-------------------------------------|
      A||-12-12-12-12-12-14-14-14-16-16-16-16-|
      E||-------------------------------------|
      
         (Gtr. 1)
      e||-7--7--7--7--7--7-7-7-7-7-7-7-|
      b||-10-10-10-10-10-9-9-9-9-9-9-9-|
      g||-9--9--9--9--9--9-9-9-9-9-9-9-|
      d||-7--7--7--7--7--7-7-7-7-7-7-7-|
      a||------------------------------|
      e||------------------------------|
       ||
       ||(Gtr. 2)
      e||-----------------------------------------------------------------------|
      B||-----------------------------------------------------------------------|
      G||-14-14-14-14-14-13-13-13-11-9-9-9--14-14-14-14-14-16-16-16-18-18-18-18-|
      D||-----------------------------------------------------------------------|
      A||-12-12-12-12-12-11-11-11-9--7-7-7--12-12-12-12-12-14-14-14-16-16-16-16-|
      E||-----------------------------------------------------------------------|
      
         (Gtr. 1)
      e||-7--7--7--7--7--7-7-7-7-7-7-7-|
      b||-10-10-10-10-10-9-9-9-9-9-9-9-|
      g||-9--9--9--9--9--9-9-9-9-9-9-9-|
      d||-7--7--7--7--7--7-7-7-7-7-7-7-|
      a||------------------------------|
      e||------------------------------|
       ||
       ||(Gtr. 2)
      e||-------------------------------------|
      B||-------------------------------------|
      G||-14-14-14-14-14-16-16-16-18-18-18-18-|
      D||-------------------------------------|
      A||-12-12-12-12-12-14-14-14-16-16-16-16-|
      E||-------------------------------------|
      
         (Gtr. 1)
      
      e||---------------------------------------------------------------|
      b||---------------------------------------------------------------|
      g||---------------------------------------------------------------|
      d||-14-16-13-14-11-13-9-11-13-14-16-13-14-16-18-16-14-16-13-13-14-|
      a||---------------------------------------------------------------|
      e||---------------------------------------------------------------|
      
      
      From this riff on Guitar 2 just strums a normal A chord
      
         (Gtr. 1)
      e||------|
      b||------|
      g||--14--| Repeatedly
      d||------|
      a||------|
      e||------|
      
         (Gtr. 2)
      
      e||-----------------------|
      b||-----------------------|
      g||-------6-7---9-----6-7-| Repeatedly till end
      d||-7-6-9-----7---9-7-----|
      a||-0-0-0-----0-----0-----|
      e||-----------------------|
      
        Composição: Foo Fighters

        Comentários 0

        140 .
        140 cancelar

        conseguiu tocar?

        covers

        Grave um vídeo tocando Aurora e mande pra gente!

        Ex.: http://www.youtube.com/watch?v=0IvSvIwGdwk
        ver covers de outras músicas »
        0:00 / 0:00

        Capítulos

          2 versões de violão dificuldade exibições contribuição e correção
          2 versões de guitarra dificuldade exibições contribuição e correção
          2 versões de cavaco dificuldade exibições contribuição e correção
          2 versões de teclado dificuldade exibições contribuição e correção
          3 versões de baixo exibições contribuição e correção
          1 versão de bateria exibições contribuição e correção
          play/pausefechar subir/descer velocidade
          6ª corda E5ª corda A4ª corda D3ª corda G2ª corda B1ª corda E
            acordes
            publicidade
            fechar
            ok