Cifra Club

Bridge Burning

Foo Fighters

Cifra: Principal (violão e guitarra)
tom: G
Guitarra 1 - Dave Grohl
Guitarra 2 - Chris Shiflett
Guitarra 3 - Pat Smear

Intro:

(Guitarra 1 - 8x)
E|-----------------------------------|
B|-----------------------------------|
G|----x-x---x-x---x-x-x---x-x---x-x--|
D|----x-x---x-x---x-x-x---x-x---x-x--|
A|----x-x---x-x---x-x-x---x-x---x-x--|
E|--9-x-x-9-x-x-9-x-x-x-9-x-x-9-x-x--|
 (Guitarra 2 - 4x)
E|-----------------------------------|
B|-----------------------------------|
G|-----------------------------------|
D|-----------------------------------|
A|--5-7-5-7-5-7-5-7-5-7----5-7-------|
E|----------------------0------0-----|
  pm. . . . . . . . . . .  . . .     
 (Guitarra 3 - 2x)
E|-----------------------------------|
B|-----------------------------------|
G|-----------------------------------| 
D|-----------------------------------|
A|--5-7-5-7-5-7-5-7-5-7----5-7-------| 
E|----------------------0------0-----| 

Intro 2:

(Guitarra 1 - 4x)
E|--------------------------------------------|
B|--------------------------------------------|
G|--------------------------------------------|
D|--------------------------------------------|
A|--------------------------------------------|
E|--10-12-10-12-10-12-10-12-10-12-0--10-12-0--|
(Guitarra 2 / Guitarra 3 - 4x)
E|--------------------------------------------|
B|--------------------------------------------|
G|--------------------------------------------|
D|--------------------------------------------|
A|--5-7-5-7-5-7-5-7-5-7----5-7----------------|
E|----------------------0------0--------------|

(Guitarra 1 - 2x)
E|---------------------------------------------------------------------------|
B|---------------------------------------------------------------------------|
G|----------------------------------5-5-5-5-----------------7-7-7-7----------|
D|----------------------------------5-5-5-5-5-5-5-5-7-7-7-7-7-7-7-7----------|
A|----------------------------------3-3-3-3-5-5-5-5-7-7-7-7-5-5-5-5----------|
E|----------------------------12\-----------3-3-3-3-5-5-5-5------------------|
(Guitarra 2 - 2x)
E|---------------------------------------------------------------------------|
B|---------------------------------------------------------------------------|
G|--9-9--9-8-8--8-7-7--7-6-6--------5-5-5-5-----------------7-7-7-7----------|
D|--x-x--x-x-x--x-x-x--x-x-x--------5-5-5-5-5-5-5-5-7-7-7-7-7-7-7-7----------|
A|--7-7--7-6-6--6-5-5--5-4-4--------3-3-3-3-5-5-5-5-7-7-7-7-5-5-5-5----------|
E|----------------------------12\-----------3-3-3-3-5-5-5-5------------------|

Verso 1:

(Guitarra 1)
E|-------------------------------------------------------------------|
B|-------------------------------------------------------------------|
G|-------------------------------------------------------------------|
D|------5-------5-------5-------5-------5-------5-------5-------5----|
A|-------------------------------------------------------------------|
E|-------------------------------------------------------------------|
(Guitarra 2)
E|-------------------------------------------------------------------|
B|-------------------------------------------------------------------|
G|--9-9-9-998-8-8-887-7-7-776-6-6-665-5-5-55----------------7-7-7-77-|
D|--9-9-9-998-8-8-887-7-7-776-6-6-665-5-5-555-5-5-557-7-7-777-7-7-77-|
A|--7-7-7-776-6-6-665-5-5-554-4-4-443-3-3-335-5-5-557-7-7-775-5-5-55-|
E|------------------------------------------3-3-3-335-5-5-55---------|
pm  . . . ... . . ... . . ... . . ... . . ... . . ... . . ... . . ..

(Guitarra 1)                                                  +
E|------------------------------------------------------------------|
B|----------------------------------------------------------5-------|
G|------------------------------------------------------------------|
D|------5-------5-------5-------5-------5-------5-------5-----------|
A|------------------------------------------------------------------|
E|--------------------------------------------------------------12\-|
(Guitarra 2)
E|------------------------------------------------------------------|
B|------------------------------------------------------------------|
G|-9-9-9-998-8-8-887-7-7-776-6-6-665-5-5-55-------------------------|
D|-9-9-9-998-8-8-887-7-7-776-6-6-665-5-5-555-5-5-557-7-7-7----------|
A|-7-7-7-776-6-6-665-5-5-554-4-4-443-3-3-335-5-5-557-7-7-7----------|
E|-----------------------------------------3-3-3-335-5-5-5------12\-|
pm . . . ... . . ... . . ... . . ... . . ... . . ... . . .

Pré-Refrão:
(Guitarra 1)
E|---3---| |-------------------|
B|---3---| |-------------------|
G|---4---| |--8-8-8-8-8-8-8-8--|
D|---5---| |--8-8-8-8-8-8-8-8--|
A|---x---| |--6-6-6-6-6-6-6-6--|
E|---3---| |-------------------|
(Guitarra 2)
E|----------------------------------------------------------------------------|
B|----------------------------------------------------------------------------|
G|--12--12-12-12-12-11-11-11-11-12-12-12-12-14-14-12--12-12-12-12-11-11-11-11-|
D|--x---x--x--x--x--x--x--x--x--x--x--x--x--x--x--x---x--x--x--x--x--x--x--x--|
A|--10--10-10-10-10-9--9--9--9--10-10-10-10-12-12-10--10-10-10-10-9--9--9--9--|
E|----------------------------------------------------------------------------|

E|-----------------------------------------------------------------|
B|-----------------------------------------------------------------|
G|-12-12-12-12-11-9--12--12-12-12-12-11-11-11-11-12-12-12-12-14-14-|
D|-x--x--x--x--x--x--x---x--x--x--x--x--x--x--x--x--x--x--x--x--x--|
A|-10-10-10-10-9--7--10--10-10-10-10-9--9--9--9--10-10-10-10-12-12-|
E|-----------------------------------------------------------------|

E|-----------------------------------------|
B|-----------------------------------------|
G|-12--12-12-12-12-11-11--8-8-8-8-8-8-8-8--|
D|-x---x--x--x--x--x--x---8-8-8-8-8-8-8-8--|
A|-10--10-10-10-10-9--9---6-6-6-6-6-6-6-6--|
E|-----------------------------------------|
(Guitarra 3)
E|-------------------------------------------------------|
B|-------------------------------------------------------|
G|-------------------------------------------------------|
D|--10~----7~----10~----12~-----13-13-13-13-13-13-13-13--|
A|--10~----7~----10~----12~-----13-13-13-13-13-13-13-13--|
E|--8~-----5~----8~-----10~-----11-11-11-11-11-11-11-11--|

Refrão:

(Guitarra 1 - 2x)
E|----------------------------------------------------------------------------|
B|----------------------------------------------------------------------------|
G|--9--9-9-9-9-9-9-9-9-9-9-9-9-9-9-11--11-11-11-11-11-11-11-11-11-11-11-11-11-|
D|--x--x-x-x-x-x-x-x-x-x-x-x-x-x-x-x---x--x--x--x--x--x--x--x--x--x--x--x--x--|
A|--7--7-7-7-7-7-7-7-7-7-7-7-7-7-7-9---9--9--9--9--9--9--9--9--9--9--9--9--9--|
E|--0--0-0-0-0-0-0-0-0-0-0-0-0-0-0--------------------------------------------|

E|-----------------------------------------------------------------------------|
B|-----------------------------------------------------------------------------|
G|-12--12-12-12-12-13--13-13-13-13-13-13-13-13-12--12-12-12-12-13--13-13-13-13-|
D|-x---x--x--x--x--x---x--x--x--x--x--x--x--x--x---x--x--x--x--x---x--x--x--x--|
A|-10--10-10-10-10-11--11-11-11-11-11-11-11-11-10--10-10-10-10-11--11-11-11-11-|
E|-----------------------------------------------------------------------------|

E|--------------|
B|--------------|
G|-13-13-13-13--|
D|-x--x--x--x---|
A|-11-11-11-11--|
E|--------------|
(Guitarra 2 - 2x)
E|---------------------------------------------------------------------------|
B|---------------------------------------------------------------------------|
G|--9--9-9-9-9-9-9-9-9-9-9-9-9-9-9-7--7-7-7-7-7-7-7-7-7-7-7-7-7-7-5--5-5-5-5-|
D|--9--9-9-9-9-9-9-9-9-9-9-9-9-9-9-7--7-7-7-7-7-7-7-7-7-7-7-7-7-7-5--5-5-5-5-|
A|--7--7-7-7-7-7-7-7-7-7-7-7-7-7-7-5--5-5-5-5-5-5-5-5-5-5-5-5-5-5-3--3-3-3-3-|
E|---------------------------------------------------------------------------|

E|----------------------------------------------------------|
B|----------------------------------------------------------|
G|-9--9-9-9-9-9-9-9-9-----------------9--9-9-9-9-9-9-9-9-9--|
D|-9--9-9-9-9-9-9-9-9-10--10-10-10-10-9--9-9-9-9-9-9-9-9-9--|
A|-7--7-7-7-7-7-7-7-7-10--10-10-10-10-7--7-7-7-7-7-7-7-7-7--|
E|-0--0-0-0-0-0-0-0-0-8---8--8--8--8--0--0-0-0-0-0-0-0-0-0--|

Pós-Refrão:

(Guitarra 1)
E|------------------------------------------------------------------------------------|
B|------------------------------------------------------------------------------------|
G|-12--12-12-12-12-13--13-13-13-13-13-13-13-13----------------------------------------|
D|-x---x--x--x--x--x---x--x--x--x--x--x--x--x--12-12-12-12-12-12-12-12-12-12-12-12-12-|
A|-10--10-10-10-10-11--11-11-11-11-11-11-11-11-12-12-12-12-12-12-12-12-12-12-12-12-12-|
E|---------------------------------------------10-10-10-10-10-10-10-10-10-10-10-10-10-|

E|-----|
B|-----|
G|-----|
D|-13--|
A|-13--|
E|-11--|
(Guitarra 2)
E|-------------------------------------------------------------------|
B|-------------------------------------------------------------------|
G|-----------------9--9-9-9-9-9-9-9-9-7-7-7-7-7-7-7-7-7-7-7-7-7-7-8--|
D|-10--10-10-10-10-9--9-9-9-9-9-9-9-9-7-7-7-7-7-7-7-7-7-7-7-7-7-7-8--|
A|-10--10-10-10-10-7--7-7-7-7-7-7-7-7-5-5-5-5-5-5-5-5-5-5-5-5-5-5-6--|
E|-8---8--8--8--8--0--0-0-0-0-0-0-0-0--------------------------------|

(Intro 2 - 2x) 

Verso 2: Igual ao verso 1

Verso 3:
E|-----------------------------------------------------------------|
B|-----------------------------------------------------------------|
G|--9--9-9-9-8-8-8-8-7-7-7-7-6-6---5--5-5-5-----------------7-7-7--|   (2x)
D|--9--9-9-9-8-8-8-8-7-7-7-7-6-6---5--5-5-5-5-5-5-5-7-7-7-7-7-7-7--|  
A|--7--7-7-7-6-6-6-6-5-5-5-5-4-4---3--3-3-3-5-5-5-5-7-7-7-7-5-5-5--|
E|------------------------------------------3-3-3-3-5-5-5-5--------|

(Pré-Refrão)

(Refrão 2x)

Ponte:

(Guitarra 1 - 2x)
E|-----------------------------------------------------------------|
B|---------------------------------3-3-3-3-3-3-3-3-3-3-3-3-3-3-3-3-|
G|-1-1-1-1-1-1-1-1-1-1-1-1-1-1-1-1-2-2-2-2-2-2-2-2-2-2-2-2-2-2-2-2-|
D|-2-2-2-2-2-2-2-2-2-2-2-2-2-2-2-2-0-0-0-0-0-0-0-0-0-0-0-0-0-0-0-0-|
A|-2-2-2-2-2-2-2-2-2-2-2-2-2-2-2-2---------------------------------|
E|-0-0-0-0-0-0-0-0-0-0-0-0-0-0-0-0---------------------------------|

E|------------------------------------------------------------------|
B|-1-1-1-1-1-1-1-1-1-1-1-1-1-1-1-1-3-3-3-3-3-3-3-3-4-4-4-4-4-4-4-4--|
G|-0-0-0-0-0-0-0-0-0-0-0-0-0-0-0-0-2-2-2-2-2-2-2-2-3-3-3-3-3-3-3-3--|
D|-2-2-2-2-2-2-2-2-2-2-2-2-2-2-2-2-0-0-0-0-0-0-0-0------------------|
A|-3-3-3-3-3-3-3-3-3-3-3-3-3-3-3-3----------------------------------|
E|------------------------------------------------------------------|
(Guitarra 2 - 2x)
E|--------------------------------------------------------------------------|
B|--12----12----12----12----12----12----12----12----10----10----10----10----|
G|--14b16-14b16-14b16-14b16-14b16-14b16-14b16-14b16-12b14-12b14-12b14-12b14-|
D|--------------------------------------------------------------------------|
A|--------------------------------------------------------------------------|
E|--------------------------------------------------------------------------|

E|-------------------------------------------------------------------------|
B|-10----10----10----10----8-----8-----8-----8-----8-----8-----8-----8-----|
G|-12b14-12b14-12b14-12b14-10b12-10b12-10b12-10b12-10b12-10b12-10b12-10b12-|
D|-------------------------------------------------------------------------|
A|-------------------------------------------------------------------------|
E|-------------------------------------------------------------------------|

E|--------------------------------------------------|
B|-10----10----10----10----11----11----11----11-----|
G|-12b14-12b14-12b14-12b14-13b15-13b15-13b15-13b15--|
D|--------------------------------------------------|
A|--------------------------------------------------|
E|--------------------------------------------------|
(Guitarra 3)
E|-----------------------------------|
B|-----------------------------------|
G|-----------------------------------|
D|-----------------------------------|
A|--5-7-5-7-5-7-5-7-5-7-5-7-5-7-5-7--|
E|-----------------------------------|

(Intro 2)

(Refrão 4x)

(Pós-Refrão)

(Intro 2 - 2x)

E|---------------------------------------------------------------|
B|---------------------------------------------------------------|
G|---------------------------------------------------------------|
D|---------------------------------------------------------------|
A|--5-7-5-7-5-7-5-7-5-7-5-7-5-7-5-7-5-7-5-7-5-7-5-7-5-7----5-7---|
E|------------------------------------------------------0-----0--|
00:00 / 00:00
Outros vídeos desta música
Repetir
Outros vídeos desta música
Composição de Foo Fighters
Colaboração e revisão:
  • Élison Duarte
21.143 exibições
    • ½ Tom
    • A
    • Bb
    • B
    • C
    • Db
    • D
    • Eb
    • E
    • F
    • F#
    • G
    • Ab
  • Adicionar à lista

    0 comentários

    Ver todos os comentários

    Entre para oCifra Club PRO

    Tenha acesso a benefícios exclusivos no App e no Site

    • Chega de anúncios

    • Prioridade de compra em lançamentos

    • Mais recursos no app do Afinador

    • Atendimento Prioritário

    • Descontos nos produtos Cifra Club

    • Ajude a produzir mais conteúdo

    00:00 / 00:00

    Cifra Club Pro

    Aproveite o Cifra Club com benefícios exclusivos e sem anúncios
    Cifra Club Pro
    Aproveite o Cifra Club com benefícios exclusivos e sem anúncios
    OK