Cifra Club

D.O.A.

Foo Fighters

Cifra: Principal (violão e guitarra)
tom: C
Afinação Normal (EADGBe)


Introdução e Verso

E||--------------------||
B||--------------------||
G||-5-5-5-5--5-5-5-5-5-||
D||-7-7-7-7--7-7-7-7-7-||
A||-0-0-0-0--5-5-5-5-5-||
E||--------------------||


Pré-refrão

  Guitarra 1
E||----------------------------||
B||----------------------------|| 
G||-----0-------------0--------|| 
D||---------(4x)----------(4x)-|| (2x)
A||---3-------------5----------|| 
E||-1-------------2------------||

  Guitarra 2
E||-------------------||
B||-------------------||
G||---0---------0-----||
D||------5---------5--||
A||-0--------0--------||
E||-------------------||

Refrão

E||------------------------------||
B||------------------------------||
G||-------7-----7-----7-----7----||
D||-7-----7-----7-----7-----7----||
A||-7-----5-----5-----5-----5----||
E||-5-----------7-----------7----||

Pós-Refrão (Ain't no way... DOA...)

E||-------------------------||
B||-------------------------||
G||-------------------------||
D||-----------9-7-7-5-7-7-5-||
A||-5-7-7-5-7---------------||
E||-------------------------||


Verso:
(1)
You know I did it
It's over and I feel fine
Nothing you can say's gonna change my mind
Waited and I waited the longest night
Nothing like the taste of sweet decline
(2)
I went down, I fell, I fell so fast
Dropping like the grains in an hourglass
Never say forever, cause nothing lasts
Dancing with the bones to my buried past

Pré-Refrão:
Nevermind, there's nothing I can do
Bet your life there's something killing you

Refrão:
It's a shame we have to die, my dear
No one's getting out of here alive this time
What a way to go, but have no fear
No one's getting out of here alive this time

Verso:
(3)
I'm finished
I'm getting you off my chest
Made you come clean in a dirty dress
A promise is a promise
You're kept in check
Hard to cross a heart that beats it's fists
(4)
Take a good hard look for the very last time
The very last one in a very long line
Only took a second to say goodbye
Been a pleasure, but the pleasure's been mine all mine

(Pré-Refrão)
(Refrão)

Pós-Refrão:
Ain't no way
D.O.A.

(Verso 4)
(Refrão 2x)

Termina com o riff do Pós-Refrão
00:00 / 00:00
Outros vídeos desta música
Repetir
Outros vídeos desta música
Composição de Chris Shiflett / Nate Mendel / Dave Grohl / Taylor Hawkins
Colaboração e revisão:
  • Rafael Andrade
40.879 exibições
    • ½ Tom
    • A
    • Bb
    • B
    • C
    • Db
    • D
    • Eb
    • E
    • F
    • F#
    • G
    • Ab
  • Adicionar à lista

    0 comentários

    Ver todos os comentários

    Entre para oCifra Club PRO

    Tenha acesso a benefícios exclusivos no App e no Site

    • Chega de anúncios

    • Prioridade de compra em lançamentos

    • Mais recursos no app do Afinador

    • Atendimento Prioritário

    • Descontos nos produtos Cifra Club

    • Ajude a produzir mais conteúdo

    00:00 / 00:00

    Cifra Club Pro

    Aproveite o Cifra Club com benefícios exclusivos e sem anúncios
    Cifra Club Pro
    Aproveite o Cifra Club com benefícios exclusivos e sem anúncios
    OK