Cifra Club

Fraternity

Foo Fighters

Cifra: Principal (violão e guitarra)
tom: C
(Normal Tuning)


Intro/Verse
   Riff 1               Riff 2               Riff 3
     D#5   C5    G5       D#5   C5    G#5      D#5   C5    G5   G#5   F5
e||-------------------||-------------------||------------------------------|| 
B||-------------------||-------------------||------------------------------||
G||--8-8---5-5--------||--8-8---5-5--------||--8-8---5-5-------------------||
D||--8-8---5-5---5-5--||--8-8---5-5---6-6--||--8-8---5-5---5-5--6-6---3-3--||
A||--6-6---3-3---5-5--||--6-6---3-3---6-6--||--6-6---3-3---5-5--6-6---3-3--||
E||--------------3-3--||--------------4-4--||--------------3-3--4-4---1-1--||

(Gtr. 2) Riffs in Verse 
e|---------------------------------|--------------------------------|
B|--6-6-6---8---6-6--------------6-|-6-6-6---8---6-6--------------9-|
G|---------------------8---7-7-----|--------------------8---7-7-----|
D|---------------------------------|--------------------------------|
A|---------------------------------|--------------------------------|
E|---------------------------------|--------------------------------|

e|---------------------------------|------------------|
B|--6-6-6---8---6-6--------------6-|--6-6-6---8-------|
G|---------------------8---7-7-----|---------------7--|
D|---------------------------------|------------------|
A|---------------------------------|------------------|
E|---------------------------------|------------------|


Chorus
e||------------------------------------------|| 
B||------------------------------------------||
G||--4-4---\8-8------------------4-4---\8-8--||
D||--4-4---\8-8---6-6----\8-8----4-4---\8-8--||
A||--2-2---\6-6---6-6----\8-8----2-2---\6-6--||
E||---------------4-4----\6-6----------------||


Solo
(Gtr.1)
e||-------6-----------6------------6-----------6--|| 
B||--7-7--7------7-7--7-------7-7--7------7-7--7--|| (8x)
G||-----------------------------------------------||
D||-----------------------------------------------||
A||-----------------------------------------------||
E||-----------------------------------------------||

(Gtr. 2)
e||--6-------6-------6-------6--------|| 
B||--6-7-9-7-6-7-9-7-6-7-9-7-6-7-9-7--|| (8x)
G||-----------------------------------||
D||-----------------------------------||
A||-----------------------------------||
E||-----------------------------------||


Bridge
  (Gtr. 1)
e||------------------------------|| 
B||------------------------------||
G||--6-6-----4-4-----\8-x-8-x-8--||
D||--6-6-----4-4-----\8-x-8-x-8--||
A||--4-4-----2-2-----\6-x-6-x-6--||
E||------------------------------||

 (Gtr. 2) Solo in Bridge 
e|-----------------------------------------|
B|--7-7-9----7-7-7-9----7-7-7-9----7-7-7-9-|
G|-----------------------------------------|
D|-----------------------------------------|
A|-----------------------------------------|
E|-----------------------------------------|

e|-----------------------------------------|----------------|
B|--6-6-8----6-6-6-8----6-6-6-8----6-6-6-8-|-6~~-------4~~--|
G|-----------------------------------------|----------------|
D|-----------------------------------------|----------------|
A|-----------------------------------------|----------------|
E|-----------------------------------------|----------------|
 (X2)  


Outro
Gtr. 1 (Intro 3x)

Gtr. 2 (Solo Gtr.2)



The timing on this tab is not perfect, but if you listen to the song and 
follow the rhythm then you will be able to figure it out. The intro/chorus
chords are written above the notes to help with the timing.


     D#/A#              C/G       G      D#/A#             C/G      G
e|----------------------------------------------------------------------|
B|--------------------------------11-----11-11-11-13-11----------11-----|
G|---10-10-10-12--10-12-13--12-13-----------------------13-12-13----13--|
D|----------------------------------------------------------------------|
A|----------------------------------------------------------------------|
E|----------------------------------------------------------------------|

      D#/A#               C/G      G            G#    F
e|----13-13-13-15--13-11-10 11-13--------------11-10-13-11--------------|
B|--------------------------------11-----11-13--------------------------|
G|----------------------------------------------------------------------|
D|----------------------------------------------------------------------|
A|----------------------------------------------------------------------|
E|----------------------------------------------------------------------|
00:00 / 00:00
Outros vídeos desta música
Repetir
Outros vídeos desta música
Compositor não encontrado.
Colaboração e revisão:
  • Alexandre Wolff
2.962 exibições
    • ½ Tom
    • A
    • Bb
    • B
    • C
    • Db
    • D
    • Eb
    • E
    • F
    • F#
    • G
    • Ab
  • Adicionar à lista

    0 comentários

    Ver todos os comentários

    Entre para oCifra Club PRO

    Tenha acesso a benefícios exclusivos no App e no Site

    • Chega de anúncios

    • Prioridade de compra em lançamentos

    • Mais recursos no app do Afinador

    • Atendimento Prioritário

    • Descontos nos produtos Cifra Club

    • Ajude a produzir mais conteúdo

    00:00 / 00:00

    Cifra Club Pro

    Aproveite o Cifra Club com benefícios exclusivos e sem anúncios
    Cifra Club Pro
    Aproveite o Cifra Club com benefícios exclusivos e sem anúncios
    OK