Cifra Club

Generator

Foo Fighters

Tab de baixo: Principal
[Introdução]

Parte 1 
G|----------------------------------------------|
D|----------------------------------------------|
A|-----0----------------------------------------|
E|-0-0---0-0--5-5--5-5-5-5--5-5-5--0-0--2-2-----|

G|----------------------------------------------|
D|----------------------------------------------|
A|----------------------------------------------|
E|-2-2-2-2--2-2-2--0-0--5-5--5-5-5-5--5-5-5-0-0-|

G|----------------------------------------------|
D|----------------------------------------------|
A|-------------5-5--5-5-5-----------------------|
E|-2-2--2-2-2-----------------------------------|


[Primeira parte]

Lately I'm getting better...

Parte 1 de 2
G|----------------------------------------------|
D|----------------------------------------------|
A|-0--0-0--------------5-5--5-5-5--5-7-8-7-5-5--|
E|--------0-2-2--2-2-0--------------------------|

G|----------------------------------------------|
D|----------------------------------------------|
A|-5-4--4---0-0--0-0---------------5-5--5-5-5---|
E|--------7----------0--2-2--2-2-0--------------|

Parte 2 de 2
G|----------------------------------------------|
D|----------------------------------------------|
A|-5-5-5--4-2-4-5-4-2--4-2-4-5-4-2--------------|
E|----------------------------------------------|


[Introdução 2]

Parte 1 
G|----------------------------------------------|
D|----------------------------------------------|
A|----------------------------------------------|
E|--5-5--5-5-5-5--5-5-5--0-0--2-2--2-2-2-2------|

G|----------------------------------------------|
D|----------------------------------------------|
A|----------------------------------------------|
E|-2-2-2--0-0--5-5--5-5-5-5--5-5-5-0-0--2-2-----|

G|----------------------------------------------|
D|-4-2-4------------4-7-------------------------|
A|--------5--5-5--5-----------------------------|
E|----------------------------------------------|


[Segunda parte]

Steal me now and forever...

Parte 1 de 2
G|----------------------------------------------|
D|----------------------------------------------|
A|-0--0-0--------------5-5--5-5-5--5-5-5--------|
E|--------0-2-2--2-2-0--------------------------|

G|----------------------------------------------|
D|----------------------------------------------|
A|-4-2-4-5-4-2--4-2-4-5-4-2---------------------|
E|----------------------------------------------|

Parte 2 de 2
G|----------------------------------------------|
D|----------------------------------2h3p2-------|
A|-0--0-0------------------7-5-5--5-------5-4---|
E|--------0-2-2--2-2-0-5h7----------------------|

G|----------------------------------------------|
D|----------------------------------------------|
A|-4-2-4-5-4-2--4-2-4-5-4-2---------------------|
E|----------------------------------------------|


[Refrão]

I'm the generator, firing whenever you quit...

Parte 1 de 2
G|----------------------------------------------|
D|----------------------------------------------|
A|-0-0-0-0--0-0-0-0--0-0-0-0--0-0-0-0-----------|
E|----------------------------------------------|

G|----------------------------------------------|
D|-3-3-3-3-3--------------------------4-4-4-4-4-|
A|----------------------------------------------|
E|-----------1-1-1-1--1-1-1-1--1-1-1------------|

Parte 2 de 2
G|----------------------------------------------|
D|-----------0-2-4-2------5---5/7---7/9-9/12----|
A|-----0-2-4---------4-2----5-----5---------12\-|
E|-2-4------------------------------------------|

G|-----7-----7----------------------------------|
D|---7---7h9---9-7------------------------------|
A|-5---------------9\-5-7-8-7-5-----------------|
E|------------------------------0-0-------------|


[Introdução 3]

Parte 1 
G|----------------------------------------------|
D|----------------------------------------------|
A|----------------------------------------------|
E|-5-5--5-5-5-5--5-5-5--0-0--2-2--2-2-2-2-------|

G|----------------------------------------------|
D|----------------------------------------------|
A|----------------------------------------------|
E|-2-2-2--0-0--5-5--5-5-5-5--5-5-5-0-0--2-2-----|

G|----------------------------------------------|
D|-4-2------------------------------------------|
A|-----4--5--5-5--9-7---------------------------|
E|--------------------9-7-0---------------------|


[Terceira parte]

Steal me now and forever...

Parte 1 de 2
G|----------------------------------------------|
D|----------------------------------------------|
A|-0--0-0--------------5-5--5-5-5--5-5-5--------|
E|--------0-2-2--2-2-0--------------------------|

G|----------------------------------------------|
D|----------------------------------------------|
A|-4-2-4-5-4-2--4-2-4-5-4-2---------------------|
E|----------------------------------------------|

Parte 2 de 2
G|----------------------------------------------|
D|----------------------------------2h3p2-------|
A|-0--0-0------------------7-5-5--5-------5-4---|
E|--------0-2-2--2-2-0-5h7----------------------|

G|----------------------------------------------|
D|----------------------------------------------|
A|-4-2-4-5-4-2--4-2-4-5-4-2---------------------|
E|----------------------------------------------|


[Refrão 2]

I'm the generator, firing whenever you quit...

Parte 1 de 2
G|----------------------------------------------|
D|----------------------------------------------|
A|-0-0-0-0--0-0-0-0--0-0-0-0--0-0-0-0-----------|
E|----------------------------------------------|

G|----------------------------------------------|
D|-3-3-3-3-3--------------------------4-4-4-4-4-|
A|----------------------------------------------|
E|-----------1-1-1-1--1-1-1-1--1-1-1------------|

Parte 2 de 2
G|----------------------------------------------|
D|-----------0-2-4-2------5---5/7---7/9-9/12----|
A|-----0-2-4---------4-2----5-----5---------12\-|
E|-2-4------------------------------------------|

G|-----7-----7----------------------------------|
D|---7---7h9---9-7------------------------------|
A|-5---------------9\-5-7-8-7-5-7---------------|
E|--------------------------------0-------------|


[Quarta parte]

Parte 1 ( 6x )
G|----------------------------------------------|
D|----------------------------------------------|
A|-7-7-7--5-4---------4-------------------------|
E|------------7-5-4-7---0-----------------------|


[Refrão 3]

I'm the generator, firing whenever you quit...

Parte 1 de 2
G|----------------------------------------------|
D|----------------------------------------------|
A|-0-0-0-0--0-0-0-0--0-0-0-0--0-0-0-0-----------|
E|----------------------------------------------|

G|----------------------------------------------|
D|-3-3-3-3-3--------------------------4-4-4-4-4-|
A|----------------------------------------------|
E|-----------1-1-1-1--1-1-1-1--1-1-1------------|

G|----------------------------------------------|
D|-----------0-2-4-2------5---5/7---7/9-9/12----|
A|-----0-2-4---------4-2----5-----5---------12\-|
E|-2-4------------------------------------------|

G|-----7-----7----------------------------------|
D|---7---7h9---9-7------------------------------|
A|-5---------------9\-5-7-8-7-5-7---------------|
E|--------------------------------0-------------|

Parte 2 de 2
G|----------------------------------------------|
D|----------------------------------------------|
A|-0-0-0-0--0-0-0-0--0-0-0-0--0-0-0-0-----------|
E|----------------------------------------------|

G|----------------------------------------------|
D|-3-3-3-3-3--------------------------4-4-4-4-4-|
A|----------------------------------------------|
E|-----------1-1-1-1--1-1-1-1--1-1-1------------|

G|----------------------------------------------|
D|-----------0-2-4-2------5---5/7---7/9-9/12----|
A|-----0-2-4---------4-2----5-----5---------12\-|
E|-2-4------------------------------------------|

G|-----7-----7----------------------------------|
D|---7---7h9---9-7------------------------------|
A|-5---------------9\-5-7-8-7-5-7---------------|
E|---------------------------------0-0----------|


[Introdução 4 - Final]

Parte 1
G|----------------------------------------------|
D|----------------------------------------------|
A|-0-0--0-0-0-0--0-0-0-----0-0--0-0-0-0--0-0-0--|
E|---------------------0-0----------------------|

G|----------------------------------------------|
D|----------------------------------------------|
A|-----0----------------------------------------|
E|-0-0------------------------------------------|
exibições 7.976
Composição: Foo Fighters Colaboração e revisão:
  • Reginaldo Costa

0 comentários

mostrar mais comentários

Conseguiu tocar?

1 tocaram 0 ainda não

Grave um vídeo tocando Generator e mande pra gente!

00:00 / 00:00
outros vídeos desta música
repetir qualidade Automático
Outros vídeos desta música
00:00 / 00:00
Automático
Capítulos
  • Tocando a Música
  • Apresentação / Equipamentos
  • TAB - Introdução
  • TAB - Primeira Parte
  • TAB - Introdução 2
  • TAB - Segunda Parte
  • TAB - Refrão
  • TAB - Introdução 3
  • TAB - Quarta Parte
  • TAB - Terceiro Refrão
  • TAB - Introdução 4
  • Encerramento
OK