Cifra Club

I Am a River

Foo Fighters

Cifra: Principal (violão e guitarra)
tom: E
E|---0~~------|
B|---12~~-----|
G|------------|
D|------------|
A|------------|
E|------------|

Riff (acompanha o verso até o refrão):

E|----------------------------------|
B|----------------------------------|
G|-----------------8~~--6/8/9--4~~--|
D|--7~~--/14--11--------------------|
A|-----------------6~~--4/6/7--2~~--|
E|--5~~--/12--9---------------------|

A
 There is a secret, I found a secret,
             E
 Behind a soho door.
A
 There is a reason, I found a reason,
                  E
 Beneath the subway floor.
A
 I found the water, the devil's water,
                      E
 And walked along it's shore.
B
 Is that what you want?

A
 The channel's changing, the heart is racing,
                 E
 From voices on a wire.

A
 The soul is yearning, the cold is burning,
                   E
 The ember starts a fire.
A
 Can we recover, love for each other,
                    E
 The measure of your life

B
 Is that what you want? 
 Is that what you really want?

    A        E*
 A river, a river 
    B                    E
 A river running under ground
    A        E*
 A river, a river 
B
 Is that what you want?
 Is that what you really want?

E*      B         A
I!.. I!.. I am a river
I!.. I!.. I am a river
I!.. I!.. I am a river
I!.. I!.. I am a river

Ponte:

E|-----------------------------------------------------|
B|-----------------------------------------------------|
G|--9-4-666666---9-4-666666---9-4-666666-4-6-8-4444444-|
D|-----------------------------------------------------|  (2x)
A|--7-2-444444---7-2-444444---7-2-444444-2-4-6-2222222-|
E|-----------------------------------------------------|

B
 Is that what you want?
 Is that what you really want?

E*      B         A
I!.. I!.. I am a river
I!.. I!.. I am a river
I!.. I!.. I am a river
I!.. I!.. I am a river

E|--0-0-0-0-0-0-0-0-0-|
B|--4-4-5-5-4-4-0-2-0-|
G|--------------------| (12x)
D|--------------------|
A|--------------------|
E|--------------------|

E|-0--0--0--0-0-0-0-0-0-0-|
B|-12-12-12-7-7-7-9-9-9-9-|
G|------------------------|  (2x)
D|------------------------|
A|------------------------|
E|------------------------|

E|-0-0-0-0-0-0-0-0-0-0-0-0-0-0-0-|
B|-4-4-4-4-4-4-4-4-2-2-2-2-2-2-2-|
G|-------------------------------|
D|-------------------------------|
A|-------------------------------|
E|-------------------------------|
               I am a riveeeeeer!

E*      B         A
I!.. I!.. I am a river
I!.. I!.. I am a river
I!.. I!.. I am a river
I!.. I!.. I am a river

Encerramento:

E|--0-0-0-0-0-0-0-0-0-|
B|--4-4-5-5-4-4-0-2-0-|
G|--------------------|  (5x)
D|--------------------|
A|--------------------|
E|--------------------|

E|--0-0-0-0-0-0-0-0-0-0-0-0-0-0-0-0-0-0--0--0--0--0--0--0-0-0-0-0-0-|
B|--4-4-5-5-4-4-0-2-0-4-4-5-5-7-7-9-9-12-12-12-10-10-10-9-9-9-7-7-7-|
G|------------------------------------------------------------------| 
D|------------------------------------------------------------------|
A|------------------------------------------------------------------|
E|------------------------------------------------------------------|

E|--0-0-0-0-0-0-0-0--0-0-0-0-0-0-0-0-0-0-0-0-0-0--0--0--0-|
B|--5-5-4-4-5-5-7-12-4-4-5-5-4-4-0-0-4-4-5-5-7-12-0--0--0-|
G|--------------------------------------------------------| 
D|--------------------------------------------------------|
A|--------------------------------------------------------|
E|--------------------------------------------------------|

E|--0-0-0-0-0-0-0-0-0-0-0-0-0-0-0-0-0-0-0-0-0-0-0-0-0-0-|
B|--5-5-5-5-5-5-5-5-5-5-5-5-7-7-7-7-9-9-9-9-9-9-9-9-9-9-|
G|------------------------------------------------------|
D|------------------------------------------------------|
A|------------------------------------------------------|
E|------------------------------------------------------|

E|--0--0--0--0--0--0--0--0--0--0--0--0--0--0--0--0--0--0--0--0--0--0--0--0--0--|
B|--10-10-10-10-12-12-12-12-12-12-12-12-12-12-12-12-12-12-12-12-12-12-12-12-12-|
G|-----------------------------------------------------------------------------|
D|-----------------------------------------------------------------------------|
A|-----------------------------------------------------------------------------|
E|-----------------------------------------------------------------------------|

E|-0--0--0--0--0--0--0--0--0--0--0--0--0--0--0--0--0--0--0~~~~--|
B|-16-16-16-16-16-16-16-16-16-16-16-16-16-16-16-16-16-16-17~~~~-|
G|--------------------------------------------------------------|
D|--------------------------------------------------------------|
A|--------------------------------------------------------------|
E|--------------------------------------------------------------|

00:00 / 00:00
Outros vídeos desta música
Repetir
Outros vídeos desta música
Composição de Dave Grohl
Colaboração e revisão:
  • Vinicius Uzêda
5.930 exibições
    • ½ Tom
    • A
    • Bb
    • B
    • C
    • Db
    • D
    • Eb
    • E
    • F
    • F#
    • G
    • Ab
  • Adicionar à lista

    0 comentários

    Ver todos os comentários

    Entre para oCifra Club PRO

    Tenha acesso a benefícios exclusivos no App e no Site

    • Chega de anúncios

    • Prioridade de compra em lançamentos

    • Mais recursos no app do Afinador

    • Atendimento Prioritário

    • Descontos nos produtos Cifra Club

    • Ajude a produzir mais conteúdo

    00:00 / 00:00

    Cifra Club Pro

    Aproveite o Cifra Club com benefícios exclusivos e sem anúncios
    Cifra Club Pro
    Aproveite o Cifra Club com benefícios exclusivos e sem anúncios
    OK