Notificações Amigos pendentes

      Foo Fighters

      Learn to Fly

      512.863 exibições
      Tom: A
      Introdução: B5(9)  F#5(7/11)/C#  E
                  B5(9)  F#5(7/11)/C#  E
      ~
      Riff da Introdução:
      
      E|---------------------------------------------------
      B|---------------------------------------------------
      G|4-4-4-4-4-4-4/6-6-6-6b7-6-6\4-4-4-4-4-4-4-4-4-4-4-4
      D|---------------------------------------------------
      A|2-2-2-2-2-2-2/4-4-4-4b5-4-4\2-2-2-2-2-2-2-2-2-2-2-2
      E|---------------------------------------------------
      
        ↓ ↓ ↑ ↑ ↓ ↑ ↓   ↓ ↑ ↑   ↑ ↓   ↓ ↑ ↑ ↓ ↑ ↓ ↓ ↑ ↑ ↓ ↑
      
      
      E|---------------------------------------------------
      B|---------------------------------------------------
      G|4-4-4-4-4-4-4/6-6-6-6b7-6-6\4-4-4-4-4-4-4----4-4-4-
      D|---------------------------------------------------
      A|2-2-2-2-2-2-2/4-4-4-4b5-4-4\2-2-2-2-2-2-2----2-2-2-
      E|----------------------------------------4b¼r-4-----
      
        ↓ ↓ ↑ ↑ ↓ ↑ ↓   ↓ ↑ ↑   ↑ ↓   ↓ ↑ ↑ ↓ ↑ ↓    ↓ ↑ ↑
      
      
      E|---------------------------------------------------
      B|---------------------------------------------------
      G|4-4-4----------------------------------------------
      D|---------------------------------------------------
      A|2-2-2----------------------------------------------
      E|---------------------------------------------------
      
        ↓ ↑ ↓
      
      
      Primeira Parte:
      
      
        B5(9)    F#m7(11)/C#  E
      E|------2--------0------------0--------0-------------
      B|--2---2----0---0--------0---0----0---0-------------
      G|--4--------2------------1--------1-----------------  (3x)
      D|4---4----4---4-------------------------------------
      A|2---2----4---4-------------------------------------
      E|----------------------0---0----0---0---------------
      
      
        B5(9)    F#m7(11)/C#  E
      E|------2--------0------------0------0------0--------
      B|--2---2----0---0--------0---0--0---0--0---0--0---0-
      G|--4--------2------------1------1------1------1---1-
      D|4---4----4---4-------------------------------------
      A|2---2----4---4-------------------------------------
      E|----------------------0---0------0------0------0---
      
      
      
       B5(9)                  F#m7(11)/C#
      Run and tell all of the angels
        E
      This could take all night
        B5(9)
      Think I need a devil
          F#m7(11)/C#        E
      To help me get things right
       B5(9)                F#m7(11)/C#
      Hook me up a new revolution
               E
      'Cause this one is a lie
          B5(9)
      We sat around laughing
           F#m7(11)/C#          E
      And watched the last one die
      
      Refrão:
           B5(9)                 F#5(7/11)/C#
      I'm looking to the sky to save me
       E
      Looking for a sign of life
       B5(9)                    F#5(7/11)/C#      E
      Looking for something to help me burn out bright
           B5(9)             F#5(7/11)/C#
      I'm looking for complication
       E
      Looking cause I'm tired of lying
       G5               A5(9)                    B5(9)
      Make my way back home when I learn to fly high
      
      (Riff da Introdução – Variação)
      
      
      E|---------------------------------------------------
      B|---------------------------------------------------
      G|4-4-4-4-4-4-4/6-6-6-6b7-6-6\4-4-4-4-4-4-4----4-4-4-
      D|---------------------------------------------------
      A|2-2-2-2-2-2-2/4-4-4-4b5-4-4\2-2-2-2-2-2-2----2-2-2-
      E|----------------------------------------4b¼r-4-----
      
        ↓ ↓ ↑ ↑ ↓ ↑ ↓   ↓ ↑ ↑   ↑ ↓   ↓ ↑ ↑ ↓ ↑ ↓    ↓ ↑ ↑
      
      
      E|---------------------------------------------------
      B|---------------------------------------------------
      G|4-4------------------------------------------------
      D|---------------------------------------------------
      A|2-2------------------------------------------------
      E|---------------------------------------------------
      
        ↓ ↑
      
      
      E|---------------------------------------------------
      B|---------------------------------------------------
      G|4-4-4-4-4-4-4/6-6-6-6b7-6-6\4-4-4-4-4-4-4-4-4-4-4-4
      D|---------------------------------------------------
      A|2-2-2-2-2-2-2/4-4-4-4b5-4-4\2-2-2-2-2-2-2-2-2-2-2-2
      E|---------------------------------------------------
      
        ↓ ↓ ↑ ↑ ↓ ↑ ↓   ↓ ↑ ↑   ↑ ↓   ↓ ↑ ↑ ↓ ↑ ↓ ↓ ↑ ↑ ↓ ↑
      
      
      E|---------------------------------------------------
      B|---------------------------------------------------
      G|4--------------------------------------------------
      D|---------------------------------------------------
      A|2--------------------------------------------------
      E|---------------------------------------------------
      
        ↓
      
      
      Segunda Parte:
      
      (Guitarra 2)
      
        B5(9)    F#4(7/9)     E9
      E|------2--------4------------2--------2-------------
      B|--2---2----5---5--------0---0----0---0-------------
      G|--4------4-4-4----------1--------1-----------------  (4x)
      D|4---4----4---4-------------------------------------
      A|2---2----------------------------------------------
      E|----------------------0---0----0---0---------------
      
      
        B5(9)    F#4(7/9)     E9
      E|------2--------4------------2------2------2--------
      B|--2---2----5---5--------0---0--0---0--0---0--0---0-
      G|--4------4-4-4----------1------1------1------1---1-
      D|4---4----4---4-------------------------------------
      A|2---2----------------------------------------------
      E|----------------------0---0------0------0------0---
      
      
      
          B5(9)                     F#5(7/11)/C#
      I think I'm done nursing the patience
      E
      I can wait one night
           B5(9)
      I'd give it all away
              F#5(7/11)/C#      E
      If you give me one last try
             B5(9)       F#5(7/11)/C#
      We'll live happily ever trapped
          E
      If you just save my life
       B5(9)
      Run and tell the angels
           F#5(7/11)/C#  E
      That everything is alright
      
      Refrão:
           B5(9)                 F#5(7/9)/C#
      I'm looking to the sky to save me
       E
      Looking for a sign of life
       B5(9)                    F#5(7/9)/C#       E
      Looking for something to help me burn out bright
           B5(9)             F#5(7/9)/C#
      I'm looking for complication
       E
      Looking cause I'm tired of lying
       G5               A5(9)                    E
      Make my way back home when I learn to fly high
       G5               A5(9)
      Make my way back home when I learn to...
      
      Terceira Parte:
        B5(11) G5
      Fly    along with me
         D5(9)                E
      I can't quite make it alone
        G5               A5(9)
      Try and make this life my own
        B5(11) G5
      Fly    along with me
         D5(9)                E
      I can't quite make it alone
        G5              A5(9)
      Try to make this life my own
      
      Refrão Final:
      
      (Riff da Introdução 2x)
      
      E|---------------------------------------------------
      B|---------------------------------------------------
      G|4-4-4-4-4-4-4/6-6-6-6b7-6-6\4-4-4-4-4-4-4-4-4-4-4-4
      D|---------------------------------------------------
      A|2-2-2-2-2-2-2/4-4-4-4b5-4-4\2-2-2-2-2-2-2-2-2-2-2-2
      E|---------------------------------------------------
      
        ↓ ↓ ↑ ↑ ↓ ↑ ↓   ↓ ↑ ↑   ↑ ↓   ↓ ↑ ↑ ↓ ↑ ↓ ↓ ↑ ↑ ↓ ↑
      
      
      E|---------------------------------------------------
      B|---------------------------------------------------
      G|4-4-4-4-4-4-4/6-6-6-6b7-6-6\4-4-4-4-4-4-4----4-4-4-
      D|---------------------------------------------------
      A|2-2-2-2-2-2-2/4-4-4-4b5-4-4\2-2-2-2-2-2-2----2-2-2-
      E|----------------------------------------4b¼r-4-----
      
        ↓ ↓ ↑ ↑ ↓ ↑ ↓   ↓ ↑ ↑   ↑ ↓   ↓ ↑ ↑ ↓ ↑ ↓    ↓ ↑ ↑
      
      
      E|---------------------------------------------------
      B|---------------------------------------------------
      G|4-4-4----------------------------------------------
      D|---------------------------------------------------
      A|2-2-2----------------------------------------------
      E|---------------------------------------------------
      
        ↓ ↑ ↓
      
      
           B5(9)                 F#5(7/11)/C#
      I'm looking to the sky to save me
       E
      Looking for a sign of life
       B5(9)                    F#5(7/11)/C#      E
      Looking for something to help me burn out bright
           B5(9)             F#5(7/11)/C#
      I'm looking for complication
       E
      Looking cause I'm tired of lying
       G5               A5(9)
      Make my way back home when I learn to
      
       B5(9)                 F#5(7/11)/C#
      Looking to the sky to save me
       E
      Looking for a sign of life
       B5(9)                    F#5(7/11)/C#      E
      Looking for something to help me burn out bright
           B5(9)             F#5(7/11)/C#
      I'm looking for complication
       E
      Looking cause I'm tired of lying
       G5               A5(9)                    E
      Make my way back home when I learn to fly high
      
       G5               A5(9)                   E
      Make my way back home when I learn to fly
       G5               A5(9)
      Make my way back home when I learn to
      
      ( B5(9) )
      
      
        B5(9)
      E|------2----------------------------------
      B|--2---2--2---2---------------------------
      G|--4------4---4---------------------------  (4x)
      D|4---4------4-----------------------------
      A|2---2------2-----------------------------
      E|-----------------------------------------
      
      
      
      ( B5  D#5+  F#5(11) )
        Composição: Foo FightersColaboração e revisão:
        • v.inny
        • Élison
        • reddraco
        • ZePPeLiN
        • Eduardo
        • +1

        Comentários 14

        140 .
        • Tonho Tonho: Em 18/12/2015 17:36

          Pessoal, no refrão tem uma palavra errada. o correto é: I'm looking cause I'm tired of TRYING. Valeu!

        • Marcelo Marcelo: Em 11/08/2015 22:37

          Poderiam fazer a video aula de bateria

        • Patrick Patrick: Em 08/06/2013 20:55

          gente eu misturei a versão acustica com essa no violão e ficou dahora

        • sidneyok sidneyok: Em 05/01/2013 16:23

          incrivel a sensação de estar em uma tempestade que a guitarra do vinicius da

        • escolham escolham: Em 04/01/2013 01:24

          Fácil demais!! Muito boa a video-aula!!
          mandaram bem!!

        • guga_sousa guga_sousa: Em 02/01/2013 21:26

          muito bom! E ainda facinha!

        • beatmingo beatmingo: Em 02/01/2013 20:42

          bela de uma musica

        • vinyhendrix vinyhendrix: Em 02/01/2013 19:46

          Afs ninguem merece isso ¬¬ vo ali faser coco

        • winche winche: Em 02/01/2013 19:01

          Vlw Pela Video-Aula !!! Curto muito Foo Fighters !! Vlw Cifra Club .

        • joao_henrique_a joao_henrique_a: Em 02/01/2013 18:56

          a vc's tem que fazer a video aula da Walk

        140 cancelar

        conseguiu tocar?

        • •••
        0:00 / 0:00
        1 versão de bateria exibições contribuição e correção
        2 versões de Guitar Proformatodownloadscontribuição
        play/pausefechar subir/descer velocidade
        6ª corda E5ª corda A4ª corda D3ª corda G2ª corda B1ª corda E
          acordes
          transcrição verificada v.inny instrutor de guitarra
          publicidade
          fechar
          ok