Cifra Club

Make It Right

Foo Fighters

Cifra: Principal (violão e guitarra)
tom: A
[Intro/Verse]

E|---------------------------------------------------------------------------|
B|---------------------------------------------------------------------------|
G|---------------------------------------------------------------------------|
D|---------------------------------------------------------------------------|
A|-7-----------------------------------7--------------------------------- ---|
E|---0----0--3b--0--6b--0--3--3h5p3------0----0--3b--0--6b--0--3-------------|

E|---------------------------------------------------------------------------|
B|---------------------------------------------------------------------------|
G|-----------------------------------------------------------7-7-7-7-7-7-7-7-|
D|-----------------------------------------------------------7-7-7-7-7-7-7-7-|
A|-7-----------------------------------7---------------------5-5-5-5-5-5-5-5-|
E|---0----0--3b--0--6b--0--3--3h5p3------0----0--3b--0--6b-------------------|

[Chorus]

Bm
Hop on the train to nowhere baby
G#m
Don't you wanna hitch a ride?
F
Lights go out and your head starts spinning
D
Someone got you hypnotized
Bm
Down on the chain, your bad tuxedo
G#m
Brother can you spare a dime?
F
Count what's left when it's all gone wrong
D
How you gonna make it right?

[Riff/Outro]

"How you gonna make it right?" Or Justin's Timberlake "Lalalalalala"

[Guitar 1]

E|---------------------------------------------------------------------------|
B|---------------------------------------------------------------------------|
G|-------------------------4-6-9-7-6-----------------------------------------|
D|---------------------5-7---------------------------------------------------|
A|-0-1-2--3-4-5--6-7-8-------------------------------------------------------|
E|---------------------------------------------------------------------------|

[Guitar 2]

E|---------------------------------------------------------------------------|
B|--------------------------------12-14-17-15-15-14--------------------------|
G|--------------------------12-14--------------------------------------------|
D|-7-8-9--10-11-12--13-14-15-------------------------------------------------|
A|---------------------------------------------------------------------------|
E|---------------------------------------------------------------------------|

[Guitar 3]

E|---------------------------------------------------------------------------|
B|---------------------------------------------------------------------------|
G|-----------------7-8-9--------4-9-6-4-7-6----------------------------------|
D|-7-8-9--9-10-11--7-8-9-3-5-7--4-9-6-4-7-6----------------------------------|
A|-7-8-9--9-10-11--5-6-7-3-5-7--2-7-4-2-5-4----------------------------------|
E|-5-6-7--7-8--9---------1-3-5-----------------------------------------------|
00:00 / 00:00
Outros vídeos desta música
Repetir
Outros vídeos desta música
Composição de Chris Shiflett / Dave Grohl / Nate Mendel / Pat Smear / Rami Jaffee / Taylor Hawkins
Colaboração e revisão:
  • Marcos Paulo
770 exibições
    • ½ Tom
    • A
    • Bb
    • B
    • C
    • Db
    • D
    • Eb
    • E
    • F
    • F#
    • G
    • Ab
  • Adicionar à lista

    0 comentários

    Ver todos os comentários

    Entre para oCifra Club PRO

    Tenha acesso a benefícios exclusivos no App e no Site

    • Chega de anúncios

    • Prioridade de compra em lançamentos

    • Mais recursos no app do Afinador

    • Atendimento Prioritário

    • Descontos nos produtos Cifra Club

    • Ajude a produzir mais conteúdo

    00:00 / 00:00

    Cifra Club Pro

    Aproveite o Cifra Club com benefícios exclusivos e sem anúncios
    Cifra Club Pro
    Aproveite o Cifra Club com benefícios exclusivos e sem anúncios
    OK