Cifra Club

Miss The Misery

Foo Fighters

Cifra: Principal (violão e guitarra)
tom: D
E|-0--------------------------------------------------|
B|-0--------------------------------------------------|
G|-x---------0--2--3--0-------0--2--3--0--------------|
D|-2--------------------------------------------------|
A|-2--------------------------------------------------|
E|-0--------------------------------------------------|

E|-----------------------------------------------------|
B|-----------------------------------------------------|
G|------0--2--0-2-3-0----------------------------------|
D|-2----0--2-------------------------------------------|
A|-2----x--0-------------------------------------------|
E|-0----3b---------------------------------------------|

E|-----------------------------------------------------|
B|-----------------------------------------------------|
G|------0--2-------------------------------------------|
D|-2----0--2-------------------------------------------|
A|-2----x--0--5h7-7-5----------------------------------|
E|-0----3b---------------------------------------------|

E|-----------------------------------------------------|
B|-----------------------------------------------------|
G|-12---11----9----7--------(0-2-3-0)------------------|
D|--x----x----x----x-----------------------------------|
A|-10----9----7----5-----------------------------------|
E|-----------------------------------------------------|

E|-----------------------------------------------------|
B|-----------------------------------------------------|
G|-------------10/12-12\----------------12/14-14\------|
D|-2----8--10--10/12-12\----2----10-12--12/14-14\------|
A|-2----8--10--8-/10-10\----2----10-12--10/12-12\------|
E|-0----6--8----------------0----8--10-----------------|

Verso:
E|-----------------------------------------------------|
B|-----------------------------------------------------|
G|------0--2----0-2-2-0--------------------------------|
D|-2----0--2----0-2-2-0--------------------------------|
A|-2----x--0----x-0-0-x--------------------------------|
E|-0----3b------3-----3--------------------------------|

Pré-Refrão:
E|----------------|-------------------------------------|
B|----------------|-------------------------------------|
G|------0--2------|--7-9-9-9----------------------------|
D|-2----0--2------|--7-9-9-9----------------------------|
A|-2----x--0------|--5-7-7-7----------------------------|
E|-0----3---------|-------------------------------------|
         "Miss the misery ..."
E|------------------------------------------------------------------|
B|------------------------------------------------------------------|
G|------------------------------------------------------------------|
D|-5-5-5-5-5-5-5-5-7-7-7-7-7-7-7-7-9-9-9-9-9-9-9-9-4-4-4-4-4-4-4-4--|
A|-3-3-3-3-3-3-3-3-5-5-5-5-5-5-5-5-7-7-7-7-7-7-7-7-2-2-2-2-2-2-2-2--|
E|------------------------------------------------------------------|

E|--------------------------------------------------------------------------|
B|--------------------------------------------------------------------------|
G|-------------------------------------------------11-11-11-11-12-12-12/14--|
D|-5-5-5-5-5-5-5-5-7-7-7-7-7-7-7-7-9-9-9-9-9-9-9-9-x--x--x--x---x-x-x-x-x---|
A|-3-3-3-3-3-3-3-3-5-5-5-5-5-5-5-5-7-7-7-7-7-7-7-7-9--9--9--9--10-10-10/12--|
E|--------------------------------------------------------------------------|

E|------------------------------------------|
B|------------------------------------------|
G|------------------------------------------|
D|-5-5-5--5-5--7-7-7-7--9-9-9--9-9-4-4-4-4--|
A|-3-3-3--3-3--5-5-5-5--7-7-7--7-7-2-2-2-2--|
E|------------------------------------------|

Refrão:
         "Don't   save(?)  your   mind ..."
E|---------------------------------0--0-0--0--0-0------------------|
B|-----------------3--3-3--3--3-3--0--0-0--0--0-0------------------|
G|-5--5-5--5--5-5--2--2-2--2--2-2--x--x-x--x--x-x--4--4-4--4--4-4--|
D|-5--5-5--5--5-5--0--0-0--0--0-0--2--2-2--2--2-2--4--4-4--4--4-4--|
A|-3--3-3--3--3-3------------------2--2-2--2--2-2--2--2-2--2--2-2--|
E|---------------------------------0--0-0--0--0-0------------------|

E|--3--3-3--3--3-3------------------|
B|--3--3-3--3--3-3--3--3-3--3-3-3---|
G|--0--0-0--0--0-0--2--2-2--2-2-2---|
D|--x--x-x--x--x-x--0--0-0--0-0-0---|
A|--3--3-3--3--3-3------------------|
E|----------------------------------|

E|-12----12----12-----12-----14----14----14----14------|
B|----12----12----12-----12-----12----12----12----12---|
G|-----------------------------------------------------|
D|-----------------------------------------------------|
A|-----------------------------------------------------|
E|-----------------------------------------------------|

E|-12----12----12-----12-----11----11----11----11------|
B|----12----12----12-----12-----12----12----12----12---|
G|-----------------------------------------------------|
D|-----------------------------------------------------|
A|-----------------------------------------------------|
E|-----------------------------------------------------|

E|-12----12----12-----12-----14----14----14----14------|
B|----12----12----12-----12-----12----12----12----12---|
G|-----------------------------------------------------|
D|-----------------------------------------------------|
A|-----------------------------------------------------|
E|-----------------------------------------------------|

E|-12----12----12-----12-----14-14-14-14-14-14-14-14---|
B|----12----12----12-----12--12-12-12-12-12-12-12-12---|
G|-----------------------------------------------------|
D|-----------------------------------------------------|
A|-----------------------------------------------------|
E|-----------------------------------------------------|

00:00 / 00:00
Outros vídeos desta música
Repetir
Outros vídeos desta música
Composição de Foo Fighters
Colaboração e revisão:
  • Élison Duarte
5.745 exibições
    • ½ Tom
    • A
    • Bb
    • B
    • C
    • Db
    • D
    • Eb
    • E
    • F
    • F#
    • G
    • Ab
  • Adicionar à lista

    0 comentários

    Ver todos os comentários

    Entre para oCifra Club PRO

    Tenha acesso a benefícios exclusivos no App e no Site

    • Chega de anúncios

    • Prioridade de compra em lançamentos

    • Mais recursos no app do Afinador

    • Atendimento Prioritário

    • Descontos nos produtos Cifra Club

    • Ajude a produzir mais conteúdo

    00:00 / 00:00

    Cifra Club Pro

    Aproveite o Cifra Club com benefícios exclusivos e sem anúncios
    Cifra Club Pro
    Aproveite o Cifra Club com benefícios exclusivos e sem anúncios
    OK