Cifra Club

Aprenda

Monkey Wrench

Foo Fighters

Tab de baixo: Versão 4
Quer fazer aulas de música com a gente? Responda essas perguntas
e nos ajude nesse projeto! →
Tabbed By : DWreck025
e-mail: ElementS*

Tuning: Drop D

Intro
G|--------------------------------------------------------------------------|
D|---------------------------4-4-4--4-2-2-2-2-2-2-2-2-2-2-0-2-0-2-0---------|
A|-2-2-2-2-2-2-2-2-2-2-2-2-2------------------------------------------------|
D|--------------------------------------------------------------------------|

Verse
G|--------------------------------------------------------------------------|
D|-------------------------4-4-4--4-2-2-2-2-2-2-2-2-2-2-0-2-0-2-0-----------|
A|-2--2---2-2-2--2-2-2-2-2--------------------------------------------------|
D|--------------------------------------------------------------------------|

Pre-Chorus
G|--------------------------------------------------------------------------|
D|--------------------------------------------------------------------------|
A|--------------------------------------------------------------------------|
D|-2--2-2-0-2----2--0-2-0-2-0----2--2-2-0-2----2--0-2-0-2-0-----------------|

Chorus
G|--------------------------------------------------------------------------|
D|-----------------------------------------4-6----6-6-4-6-4-----------------|
A|-----------------------------2--2-2-4-6-------------------6---------------|
D|-2--2-2-0-2----2---0-2-0-2-0--------------------------------4-------------|

G|--------------------------------------------------------------------------|
D|--------------------------------------------------4-----------------------|
A|----------------------------------3----2-2---4-6--------------------------|
D|-(4)-2-2-2-2-2-2-4----2-2-4----2---------------------6--------------------|

G|--------------------------------------------------------------------------|
D|--------------------------------------------------------------------------|
A|-----------------------------------------------------3--------------------|
D|-(6)-6-6-4-6--4\1--4----2-2-2-2-2-2-4----2-2-4----2-----------------------|

Bridge
G|--------------------------------------------------------------------------|
D|--------------------------------------------------------------------------|
A|----7---------------------------------------------------------------------|
D|-6------9--5---5-5-5-5-5--4---2-2-2-2-2---4---2-2-2-2-2-2-0---------------|

G|--------------------------------------------------------------------------|
D|--------------------------------------------------------------------------|
A|------7-------------------------------------------------------------------|
D|-6---------9---5----5-5-5-5-5----4----2-2-2-2-2-2-4-----------------------|

G|--------------------------------------------------------------------------|
D|--------------------------------------------------------------------------|
A|----------------------------------------------------3---------------------|
D|-(4)-2-2-2-2-2-2-4----2-2-4----2-2-4----2-2-4----2------------------------|

Pre-Chorus
G|--------------------------------------------------------------------------|
D|--------------------------------------------------------------------------|
A|--------------------------------------------------------------------------|
D|-2--2-2-0-2----2---0-2-0-2-0----2---2-2-0-2-------------------------------|

G|--------------------------------------------------------------------------|
D|--------------------------------------------------------------------------|
A|--------------------------------------------------------------------------|
D|-(2)-2---0-2-0-2-0----2---2---0-2----2-2-0-2-0-2-4------------------------|

Outro
G|--------------------------------------------------------------------------|
D|------------------------------------4----2-2-2-2-2-2----------------------|
A|--2-2-2-2-2-2-2-2----2-2-2-2-2-2-2----------------------------------------|
D|------------------------------------------------------4-------------------|

G|--------------------------------------------------------------------------|
D|--------------------------------------------------------------------------|
A|---------------------------------------------------3---2------------------|
D|-(4)-2-2-2-2-2-2-4----2-2-4----2-2-4----2-2-4---2-------------------------|

| /  slide up
| \  slide down
| h  hammer-on
| p  pull-off
| ~  vibrato
| +  harmonic
| x  Mute note
============================================================================
Composição de Foo Fighters
366 exibições

0 comentários

Ver todos os comentários
00:00 / 00:00
Outros vídeos desta música
Repetir Qualidade Automático
Outros vídeos desta música
00:00 / 00:00
Automático

Cifra Club Pro

Aproveite o Cifra Club com benefícios exclusivos e sem anúncios
Cifra Club Pro
Aproveite o Cifra Club com benefícios exclusivos e sem anúncios
OK