Cifra Club

My Hero

Foo Fighters

Cifra: Principal
exibições 432.169
Tom: E
(Bateria)

(Bateria + Contrabaixo)

Guitarra Solo - Riff 1:


E|0--0----0--0------0---------0--0----0--0------0----
B|4--4h5--4--0----0---0---0---4--4h5--4--0----0---0--
G|-----------4--4-------4----------------4--4-------4
D|---------------------------------------------------
A|---------------------------------------------------
E|---------------------------------------------------


Introdução: E  C#m7  (4x)
            F#m  A5

Riff de Passagem:


  F#         A5
E|---------------------------------------------------
B|---------------------------------------------------
G|---------------------------------------------------
D|-----------2---------------------------------------
A|-----4-2---0---------------------------------------
E|2--2-----4-----------------------------------------


Primeira Parte:

(Guitarra Solo)


E|-0-0-0-0-0-0-0-0-0----0-0-0----0-0-----------------
B|5-5-5-5-5-5-4-4-7p4--4-4-7p4--4-4-----------------
G|---------------------------------------------------
D|---------------------------------------------------
A|---------------------------------------------------
E|---------------------------------------------------


E|0---0-0-0-0-0-0-0-0----0-0-0-0-0-0-----------------
B|4h5-5-5-5-5-5-4-4-7p4--4-4-7-5-5-5-----------------
G|---------------------------------------------------
D|---------------------------------------------------
A|---------------------------------------------------
E|---------------------------------------------------


E       C#m7           E     C#m7
  Too alarming now to talk about
E            C#m7               E      C#m7
  Take your pictures down and shake it out
E           C#m7         E       C#m7
  Truth or consequence, say it aloud
E       C#m7          E        C#m7
  Use that evidence, race it around

Primeiro Refrão:

(Guitarra Solo - Riff do Refrão)


  A5
E|---------------------------------------------------
B|---------------------------------------------------
G|2----2--8-8-8-8-9-9-9-9-11-11-11-11----------------
D|2--2-2---------------------------------------------
A|0--0----6-6-6-6-7-7-7-7-9--9--9--9-----------------
E|---------------------------------------------------


  A5
E|---------------------------------------------------
B|---------------------------------------------------
G|2----2--8-8-8-8-9-9-9-9-6-6-6-6--------------------
D|2--2-2---------------------------------------------
A|0--0----6-6-6-6-7-7-7-7-4-4-4-4--------------------
E|---------------------------------------------------


  E5
E|---------------------------------------------------
B|---------------------------------------------------
G|--------8-8-8-8-9-9-9-9-11-11-11-11----------------
D|2----2---------------------------------------------
A|2--2-2--6-6-6-6-7-7-7-7-9--9--9--9-----------------
E|0--0-----------------------------------------------


  E5
E|---------------------------------------------------
B|---------------------------------------------------
G|--------11-11-11-11-13-13-13-13-8-8-8-8------------
D|2----2---------------------------------------------
A|2--2-2--9--9--9--9--11-11-11-11-6-6-6-6------------
E|0--0-----------------------------------------------


A5
   There goes my hero
     ( C#5 )     E5  ( B5 )
Watch him as he goes
A5
   There goes my hero
        ( C#5 ) E5  ( B5 )
He's ordina____ry

( F#m  A5 )

Variação do Riff 1:


E|0--0----0--0---------------------------------------
B|4--4h5--4--0---------------------------------------
G|-----------4b6r------------------------------------
D|---------------------------------------------------
A|---------------------------------------------------
E|---------------------------------------------------


Segunda Parte:

E            C#m7          E      C#m7
  Don't the best of them bleed it out
E            C#m7         E    C#m7
  While the rest of them peter out
E           C#m7         E       C#m7
  Truth or consequence, say it aloud
E          C#m7       E        C#m7
  Use that evidence, race it around

Segundo Refrão:

A5
   There goes my hero
     ( C#5 )     E5  ( B5 )
Watch him as he goes
A5
   There goes my hero
        ( C#5 ) E5  ( B5 )
He's ordina____ry

Guitarra 3 - Riff do Refrão:


E|---------------------------------------------------
B|---------------------------------------------------
G|8--8/9\--4-----------------------------------------
D|---------------------------------------------------
A|6--6/7\--2-----------------------------------------
E|---------------------------------------------------


( F#m  A5 )

Interlúdio: E5


E|0-0---0-0----0--------0-0---0-0------0-------------
B|4-4h5-4-0--0---0---0--4-4h5-4-0----0---0---0-------
G|--------4--------4------------4b6r-------4---------
D|---------------------------------------------------
A|---------------------------------------------------
E|---------------------------------------------------


E|0-0---0-0----0--------0-0---0-0----0---0---0-0-----
B|4-4h5-4-0--0---0---0--4-4h5-4-0----4/5-5/7-7-9-----
G|--------4--------4------------4b6r-----------------
D|---------------------------------------------------
A|---------------------------------------------------
E|---------------------------------------------------


E|0-0-0-0-0-0-0-0-0-0-0-0-0-0-0-0-0-0-0-0-0-0-0-0-0-0
B|5-5-5-5-5-5-4-4-4-4-4-4-4-4-4-4-5-5-5-5-5-5-4-4-4-4
G|---------------------------------------------------
D|---------------------------------------------------
A|---------------------------------------------------
E|---------------------------------------------------


E|0-0-0-0-0-0-0-0-0-0-0-0-0-0-0-0-0-0-0-0-0-0-0-0-0-0
B|4-4-4-4-4-4-5-5-5-5-5-5-5-5-5-5-5-5-5-5-5-5-5-5-5-5
G|---------------------------------------------------
D|---------------------------------------------------
A|---------------------------------------------------
E|---------------------------------------------------


E|0-0--0--0--0--0--0--0--0--0--0--0------------------
B|5-5b-5b-5b-5b-5b-5b-5b-5b-5b-5b-5b-----------------
G|---------------------------------------------------
D|---------------------------------------------------
A|---------------------------------------------------
E|---------------------------------------------------


Terceira Parte:
E        C#m7    E            C#m7
  Kudos my hero leaving all the best
E           C#m7        E             C#m7
  You know my hero, the one that's on

Refrão 2x:
A5
   There goes my hero
     ( C#5 )     E5  ( B5 )
Watch him as he goes
A5
   There goes my hero
        ( C#5 ) E5  ( B5 )
He's ordina____ry

( F#m  A5 )
Acordes para:
    Composição: Foo FightersColaboração e revisão:
    • Vinícius Dias
    • Renan guerreiro

    0 comentários

      mostrar mais comentários

      Conseguiu tocar?

      57tocaram2ainda não

      Grave um vídeo tocando My Hero e mande pra gente!

      00:00 / 00:00
      outros vídeos desta música
      repetirqualidadeautomática
      Outro vídeos desta música
        00:00 / 00:00
        automática
        Capítulos
        • Início
        • Tocando a música
        • Configuração dos Efeitos
        • Acordes da Introdução
        • Tocando Introdução
        • Ensinando Introdução - Guitarra Solo
        • Ensinando Ritmo da Introdução - Guitarra Base
        • Ensinando Ritmo da Introdução - Guitarra Solo
        • Ensinando Riff de Passagem
        • Tocando Primeira Parte
        • Ensinando Primeira Parte - Guitarra Solo
        • Acordes do Refrão
        • Tocando Refrão
        • Ensinando Ritmo do Refrão - Guitarra Base
        • Ensinando Riff do Refrão - Guitarra Solo
        • Tocando Segunda Parte
        • Ensinando Passagem pra Segunda Parte
        • Ensinando Guitarra 3 (Refrão)
        • Tocando Interlúdio
        • Ensinando Interlúdio
        • Tocando Final
        • Encerramento
        OK