Cifra Club

My Hero

Foo Fighters

Tab de baixo: Principal
Selo Cifra Club: esta cifra foi revisada para atender aos critérios oficiais da nossa Equipe de Qualidade.
[Introdução]

Parte 01 de 02 - 8x

G|----------------------------------------------|
D|----------------------------------------------|
A|---------------4-4--4-4-4-4--4-4-4-4----------|
E|--0-0-0-0--0-0--------------------------------|

Parte 02 de 02

G|----------------------------------------------|
D|----------------------------------------------|
A|--------4-2-----------------------------------|
E|--2---2-----4-5-------------------------------|

[Primeira Parte]

Parte 01 de 02 - 7x

G|----------------------------------------------|
D|----------------------------------------------|
A|---------------4-4--4-4-4-4--4-4-4-4----------|
E|--0-0-0-0--0-0--------------------------------|

Parte 02 de 02

G|----------------------------------------------|
D|----------------------------------------------|
A|---------------4-4--4-4-4-4--12\--------------|
E|--0-0-0-0--0-0--------------------------------|

[Refrão]

Parte 01 de 02 - 2x

G|----------------------------------------------|
D|----------------------------------------------|
A|--0-0-0-0--0-0-0-0--0-0-0-0--0-0-0-0----------|
E|----------------------------------------------|

G|----------------------------------------------|
D|----------------------------------------------|
A|--0-0-0-0--0-0-0-0--0-0-0-0--4-4-4-4----------|
E|----------------------------------------------|

G|----------------------------------------------|
D|----------------------------------------------|
A|----------------------------------------------|
E|--0-0-0-0--0-0-0-0--0-0-0-0--0-0-0-0----------|

G|----------------------------------------------|
D|----------------------------------------------|
A|-----------------------------2-2-2-2----------|
E|--0-0-0-0--0-0-0-0--0-0-0-0-------------------|

Parte 02 de 02

G|----------------------------------------------|
D|----------------------------------------------|
A|--------4-2-----------------------------------|
E|--2---2-----4-5\------------------------------|

[Segunda Parte]

Parte 01 de 02 - 7x

G|----------------------------------------------|
D|----------------------------------------------|
A|---------------4-4--4-4-4-4--4-4-4-4----------|
E|--0-0-0-0--0-0--------------------------------|

Parte 02 de 02

G|----------------------------------------------|
D|----------------------------------------------|
A|---------------4-4--4-4-4-4--12\--------------|
E|--0-0-0-0--0-0--------------------------------|

[Refrão]

Parte 01 de 02 - 2x

G|----------------------------------------------|
D|----------------------------------------------|
A|--0-0-0-0--0-0-0-0--0-0-0-0--0-0-0-0----------|
E|----------------------------------------------|

G|----------------------------------------------|
D|----------------------------------------------|
A|--0-0-0-0--0-0-0-0--0-0-0-0--4-4-4-4----------|
E|----------------------------------------------|

G|----------------------------------------------|
D|----------------------------------------------|
A|----------------------------------------------|
E|--0-0-0-0--0-0-0-0--0-0-0-0--0-0-0-0----------|

G|----------------------------------------------|
D|----------------------------------------------|
A|-----------------------------2-2-2-2----------|
E|--0-0-0-0--0-0-0-0--0-0-0-0-------------------|

Parte 02 de 02

G|----------------------------------------------|
D|----------------------------------------------|
A|--------4-2-----------------------------------|
E|--2---2-----4-5-------------------------------|

[Ponte]

Parte 01 de 02 - 2x

G|----------------------------------------------|
D|--------------------------6-------------------|
A|--------------------------4-------------------|
E|--0----------------0--------------------------|

Parte 02 de 02

G|----------------------------------------------|
D|----------------------------------------------|
A|----------------------------------------------|
E|--0----------------0----1/...-----------------|

[Pré-Refrão]

Parte 01 de 02 - 3x

G|----------------------------------------------|
D|----------------------------------------------|
A|---------------4-4--4-4-4-4--4-4-4-4----------|
E|--0-0-0-0--0-0--------------------------------|

Parte 02 de 02

G|----------------------------------------------|
D|----------------------------------------------|
A|---------------4-4--4-4-4-4--12\--------------|
E|--0-0-0-0--0-0--------------------------------|

[Refrão Final]

Parte 01 de 02

G|----------------------------------------------|
D|-------------7--------7--------7-7------------|
A|--0-0-0-0--0---0-0--0---0-0--0-----0----------|
E|----------------------------------------------|

G|----------------------------------------------|
D|-------------7--------7-----------------------|
A|--0-0-0-0--0---0-0--0---0-0-4-4-4-4-----------|
E|----------------------------------------------|

G|----------------------------------------------|
D|----------------------------------------------|
A|-------------7--------7--------7-7------------|
E|--0-0-0-0--0---0-0--0---0-0--0-----0----------|

G|----------------------------------------------|
D|----------------------------------------------|
A|-------------7--------7-----------------------|
E|--0-0-0-0--0---0-0--0---0-0--7-7-7-7----------|

G|----------------------------------------------|
D|-------------7--------7--------7-7------------|
A|--0-0-0-0--0---0-0--0---0-0--0-----0----------|
E|----------------------------------------------|

G|----------------------------------------------|
D|-------------7--------7-----------------------|
A|--0-0-0-0--0---0-0--0---0-0-4-4-4-4-----------|
E|----------------------------------------------|

G|----------------------------------------------|
D|----------------------------------------------|
A|-------------7--------7------7-7-7------------|
E|--0-0-0-0--0---0-0--0---0-0--------0----------|

G|----------------------------------------------|
D|----------------------------------------------|
A|-------------7--------7-----------------------|
E|--0-0-0-0--0---0-0--0---0-0--7-7-7-7----------|

G|----------------------------------------------|
D|-------------7--------7--------7-7------------|
A|--0-0-0-0--0---0-0--0---0-0--0-----0----------|
E|----------------------------------------------|

G|----------------------------------------------|
D|-------------7--------7-----------------------|
A|--0-0-0-0--0---0-0--0---0-0-4-4-4-4-----------|
E|----------------------------------------------|

G|----------------------------------------------|
D|----------------------------------------------|
A|-------------7--------7--------7-7------------|
E|--0-0-0-0--0---0-0--0---0-0--0-----0----------|

G|----------------------------------------------|
D|----------------------------------------------|
A|-------------7--------7-----------------------|
E|--0-0-0-0--0---0-0--0---0-0--7-7-7-7----------|


G|----------------------------------------------|
D|-------------7--------7--------7-7------------|
A|--0-0-0-0--0---0-0--0---0-0--0-----0----------|
E|----------------------------------------------|

G|----------------------------------------------|
D|-------------7--------7-----------------------|
A|--0-0-0-0--0---0-0--0---0-0-4-4-4-4-----------|
E|----------------------------------------------|

G|----------------------------------------------|
D|----------------------------------------------|
A|-------------7--------7--------7-7------------|
E|--0-0-0-0--0---0-0--0---0-0--0-----0----------|

G|----------------------------------------------|
D|----------------------------------------------|
A|-------------7--------7------2-2-2-2----------|
E|--0-0-0-0--0---0-0--0---0-0-------------------|

Parte 02 de 02

G|----------------------------------------------|
D|----------------------------------------------|
A|--------4-2-----------------------------------|
E|--2---2-----4-5-------------------------------|
Outros vídeos desta música
    34.370 exibições

    Afinação da cifra

    Afinador online

    0 comentários

    Ver todos os comentários

    Entre para o Cifra Club PRO

    Tenha acesso a benefícios exclusivos no App e no Site

    • Chega de anúncios

    • Badges exclusivas

    • Mais recursos no app do Afinador

    • Atendimento Prioritário

    • Aumente seu limite de lista

    • Ajude a produzir mais conteúdo

    Capítulos
    • Apresentação
    • Dicas Iniciais
    • Intro
    • Primeira Parte
    • Refrão
    • Segunda Parte
    • Refrão
    • Ponte
    • Pré-Refrão
    • Refrão Final
    • Encerramento

    Cifra Club Pro

    Aproveite o Cifra Club com benefícios exclusivos e sem anúncios
    Cifra Club Pro
    Aproveite o Cifra Club com benefícios exclusivos e sem anúncios
    Ops (: Contenido disponible sólo en portugués.
    OK