Cifra Club

Over And Out

Foo Fighters

Cifra: Principal (violão e guitarra)
tom: D
(Riff 1)

E|---------------------------------------------------------------------|
B|---------------------------------------------------------------------|
G|-------0---0---0----------------------0---0---0--------------2p0-----|
D|--------------------4/5-4-2p0-0--------------------4/5-4-2p0-----2p0-|
A|---2---------2----0---------------2---------2----0-------------------|
E|-0---0--------------------------0---0--------------------------------|
                                                    Em
E|------------------------------------------|------|---|
B|------------------------------------------|------|---|
G|-------0---0---0----------------0---------|----0-|---|
D|--------------------4/5-4-2p0-------0---0-|---0--|-2-|
A|---2---------2----0-----------0----2---2--|--2---|-2-|
E|-0---0----------------------------3---2---|-0----|-0-|

(Riff 2)

E|-------------------------------------------------------------------------|
B|-------------------------------------------------------------------------|
G|----------0--0---0----------------------0---0---0--------------2p0-------|
D|---0--0--0------------4/5-4-2p0-0--------------------4/5-4-2p0-----2p0---|
A|--2--2--2------2----0---------------2---------2----0--------------------2|
E|-3--2--0--------------------------0---0--------------------------------0-|

( Em  A  Em  A )
( Em  A  G  F#m )
 
Em                A  Em                A
Restless little one. Comfortable and warm
Em             A   G         F#m   Em      A     Em      A
Let me fall apart. Crippled in your arms

Em                    A    Em            A
Chase me through the dark. Ready on your mark
Em                  A     G         F#m    Em      
First to reach the stars. Wins a broken heart
G         F#m   Em    G         F#m      Em      
One that broke apart. Shattered from the start

            A          G
Are you there? Do you read me?
           A           G        F#m  
Are you there? I don't feel you anymore

( Em  A  Em  A )

Em             A   Em                  A
Cages and alarms. Keeping us from harm
Em                A   G         F#m    Em     A
I will be the guard. Hope to rest upon
Em               A   Em                  A
Could I be the one. To break a will so strong

Em                  A  G         F#m    Em
Pray it won't be long. Til your will is gone
G         F#m  Em    G         F#m    Em
Everything is done. Nothing left at all

           A          G
Are you there? Do you read me?
           A           G        
Are you there? I don't feel you anymore

           A          G
Are you there? Do you read me?
           A        G    F#m  Em    A       
Are you there? If I give out

Em    A        Em     A     Em     A 
     …Over and out
Em          A      Em             A                
Cages and alarms. Keeping us from harm. 
Em             A     G       F#m     Em
I will be the guard. Hope to rest upon
G       F#m     Em     G       F#m     Em
Everything is done. Nothing left at all

           A          G
Are you there? Do you read me?
           A           G        
Are you there? I don't feel you anymore

           A          G
Are you there? Do you read me?
           A        G    F#m  Em
Are you there? If I give out
00:00 / 00:00
Outros vídeos desta música
Repetir
Outros vídeos desta música
Composição de Foo Fighters
Colaboração e revisão:
  • Alexandre Lima
  • Guilherme Rosa
18.280 exibições
    • ½ Tom
    • A
    • Bb
    • B
    • C
    • Db
    • D
    • Eb
    • E
    • F
    • F#
    • G
    • Ab
  • Adicionar à lista

    0 comentários

    Ver todos os comentários

    Entre para oCifra Club PRO

    Tenha acesso a benefícios exclusivos no App e no Site

    • Chega de anúncios

    • Prioridade de compra em lançamentos

    • Mais recursos no app do Afinador

    • Atendimento Prioritário

    • Descontos nos produtos Cifra Club

    • Ajude a produzir mais conteúdo

    00:00 / 00:00

    Cifra Club Pro

    Aproveite o Cifra Club com benefícios exclusivos e sem anúncios
    Cifra Club Pro
    Aproveite o Cifra Club com benefícios exclusivos e sem anúncios
    OK