Cifra Club

Rope

Foo Fighters

Cifra: Principal (violão e guitarra)
tom: D
Intro

E|-0---0---0---0----|----------------|
B|-5---12--8---8----|----------------| 
G|-7---14--10--10---|----------------|
D|-7---14--10--10---|----------------|
A|------------------|-------7/5p0----|
E|------------------|-7/5p0----------|

Verso 1

E|-0-0-0-0-0-0-0--|-0--0--0--0--0--0--0---|-0--0--0--0--0--0--0---|-0--0--0--0--0--0--0--|-------------|
B|-5-5-5-5-5-0-5--|-12-12-12-12-12-0--12--|-8--8--8--8--8--8--8---|-8--8--8--8--8--8--8--|-------------|
G|-7-7-7-7-7-7-7--|-14-14-14-14-14-14-14--|-10-10-10-10-10-0--10--|-10-10-10-10-10-0--10-|-------------|
D|-7-7-7-7-7-7-7--|-14-14-14-14-14-14-14--|-10-10-10-10-10-10-10--|-10-10-10-10-10-10-10-|-------------|
A|----------------|-----------------------|-----------------------|----------------------|-------7/5p0-|
E|----------------|-----------------------|-----------------------|----------------------|-7/5p0-------|

This indecision got me climbing up the walls
I've been cheating gravity and waiting on the fall
How did this come over me, I thought I was above it all
Our hope's gone up in smoke, swallow your crown
       
Choke! On a kiss, I thought I'd save my breath for you
Choke! On a kiss, I thought I'd save my breath for you

Refrão
 G            Em               Bm          A  G|-6b-4-----|
                                             D|------7-5-|
Give me some rope I'm coming loose, I'm hanging on you
 G            Em               Bm          A  G|-6b-4-----|
                                             D|------7-5-|
Give me some rope I'm coming loose, I'm pulling for you now
G            Em              Bm               A
Give me some rope I'm coming out of my head, into the clear
      G     Ab   A     Bb    Bm
When you    go   I   come    loose

E|-0-0-0-0-0-0-0--|-0--0--0--0--0--0--0---|-0--0--0--0--0--0--0---|-0--0--0--0--0--0--0--|-------------|
B|-5-5-5-5-5-0-5--|-12-12-12-12-12-0--12--|-8--8--8--8--8--8--8---|-8--8--8--8--8--8--8--|-------------|
G|-7-7-7-7-7-7-7--|-14-14-14-14-14-14-14--|-10-10-10-10-10-0--10--|-10-10-10-10-10-0--10-|-------------|
D|-7-7-7-7-7-7-7--|-14-14-14-14-14-14-14--|-10-10-10-10-10-10-10--|-10-10-10-10-10-10-10-|-------------|
A|----------------|-----------------------|-----------------------|----------------------|-------7/5p0-|
E|----------------|-----------------------|-----------------------|----------------------|-7/5p0-------|

A|-2-2-2/4-4/5~-5/7-7/8~-8/10-10/12-|2-2-2/4-4/5~-5/7-7/8~-12/15-12-|-------7/5p0-| **otra guitarra
E|----------------------------------|-------------------------------|-7/5p0-------|


Verso 2

These premonitions got me crying up a storm
Leave your condition, this position does no harm

Choke! On a kiss, I thought I'd save my breath for you
Choke! On a kiss, I thought I'd save my breath for you

Refrão
 G            Em               Bm          A  G|-6b-4-----|
                                             D|------7-5-|
Give me some rope I'm coming loose, I'm hanging on you
 G            Em               Bm          A  G|-6b-4-----|
                                             D|------7-5-|
Give me some rope I'm coming loose, I'm pulling for you now
G            Em              Bm               A
Give me some rope I'm coming out of my head, into the clear
      G     Ab   A     Bb    Bm
When you    go   I   come    loose

Ponte
D|-------7--9-|
A|-9-7-9-5--7-|  x4
E|-7-5-7------|

Solo

D|-------7--9-x-x-x-x-|------------0-|
A|-9-7-9-5--7-x-x-x-x-|-5--5--7--2-0-|  x4
E|-7-5-7--------------|-3--3--5--0---|

D|-------7--9-x-x-x-x-|--------------|
A|-9-7-9-5--7-x-x-x-x-|-5--5--7--2-2-|  x4
E|-7-5-7--------------|-3--3--5--0-0-|




Refrão
 G            Em               Bm          A  G|-6b-4-----|
                                             D|------7-5-|
Give me some rope I'm coming loose, I'm hanging on you
 G            Em               Bm          A  G|-6b-4-----|
                                             D|------7-5-|
Give me some rope I'm coming loose, I'm pulling for you now
 G            Em                Bm           A  G|-6b-4-----|
                                               D|------7-5-|
Give me some rope I'm coming through, I'm counting on you
G            Em              Bm               A
Give me some rope I'm coming out of my head, into the clear
      G     Ab   A     Bb    Bm
When you    go   I   come    loose

E|-0---0---0---0----|----------------|
B|-5---12--8---8----|----------------| 
G|-7---14--10--10---|----------------|
D|-7---14--10--10---|----------------|
A|------------------|-------7/5p0----|
E|------------------|-7/5p0----------|

E|-0-0-0-0-0-0-0--|-0--0--0--0--0--0--0---|-0--0--0--0--0--0--0---|-0--0--0--0--0--0--0--|-------------|
B|-5-5-5-5-5-0-5--|-12-12-12-12-12-0--12--|-8--8--8--8--8--8--8---|-8--8--8--8--8--8--8--|-------------|
G|-7-7-7-7-7-7-7--|-14-14-14-14-14-14-14--|-10-10-10-10-10-0--10--|-10-10-10-10-10-0--10-|-------------|
D|-7-7-7-7-7-7-7--|-14-14-14-14-14-14-14--|-10-10-10-10-10-10-10--|-10-10-10-10-10-10-10-|-------------|
A|----------------|-----------------------|-----------------------|----------------------|-------7/5p0-|
E|----------------|-----------------------|-----------------------|----------------------|-7/5p0-------|
00:00 / 00:00
Outros vídeos desta música
Repetir
Outros vídeos desta música
Composição de John Ashton / Nicholas Morris / Paul Davey / Richard Butler
Colaboração e revisão:
47.201 exibições
    • ½ Tom
    • A
    • Bb
    • B
    • C
    • Db
    • D
    • Eb
    • E
    • F
    • F#
    • G
    • Ab
  • Adicionar à lista

    0 comentários

    Ver todos os comentários

    Entre para oCifra Club PRO

    Tenha acesso a benefícios exclusivos no App e no Site

    • Chega de anúncios

    • Prioridade de compra em lançamentos

    • Mais recursos no app do Afinador

    • Atendimento Prioritário

    • Descontos nos produtos Cifra Club

    • Ajude a produzir mais conteúdo

    00:00 / 00:00

    Cifra Club Pro

    Aproveite o Cifra Club com benefícios exclusivos e sem anúncios
    Cifra Club Pro
    Aproveite o Cifra Club com benefícios exclusivos e sem anúncios
    OK