Cifra Club

Black Friday Cifra Club

Saint Cecilia

Foo Fighters

Tab de baixo: Principal
Introdução (Entra com a bateria)
G|-----------------|
D|-----------------|
A|---12~-----14~---|
E|-------12~-------| x2

G|-----------------|
D|-----------------|
A|-0-0-0-0-0-0-0-0-|
E|-----------------| x4


Verso

G|-----------------------------------|
D|-----------------------------------|
A|-4-4-444-444-4420----------------7-|
E|------------------0-0-000-000-047--| x4


Pré-Refrão

G|-----------------|
D|-----------------|
A|-2-2-2-2-2-2-2-2-|
E|-----------------| x4


Refrão

G|-----------------------------------|
D|-----------------------------------|
A|-00-040-0-0-0040---------2-2-2242--|
E|-----------------0-0-024-----------|

G|-----------------------------------|
D|-----------------------------------|
A|-00-040-0-0-2420----------2-2-2222-|
E|----------------4-0-0-024----------|

G|-----------------|
D|-----------------|
A|-0-0-0-0-0-0-0-0-|
E|-----------------| x3

G|-----------------|
D|-7-7-7-7-7-7-7-7-|
A|-----------------|
E|-----------------|


Pós-Refrão

G|-------------------------------------------------------------|
D|------------2-1------------2-1------------2-1----------------|
A|--------0204---44-444-0204---22-222-0202------00-000-000-0---|
E|-00-000----------------------------------------------------4-| x2 
(Na segunda vez não é tocada a ultima nota)


Solo

G|-----------------------------------|
D|-----------------------------------|
A|-4-4-444-444-4420----------------7-|
E|------------------0-0-000-000-047--|


Pre-Refrão

G|-----------------|
D|-----------------|
A|-2-2-2-2-2-2-2-2-|
E|-----------------| x4


Refrão

G|-----------------------------------|
D|-----------------------------------|
A|-00-040-0-0-0040---------2-2-2242--|
E|-----------------0-0-024-----------|

G|-----------------------------------|
D|-----------------------------------|
A|-00-040-0-0-2420----------2-2-2222-|
E|----------------4-0-0-024----------|

G|-----------------|
D|-----------------|
A|-0-0-0-0-0-0-0-0-|
E|-----------------| x3

G|-----------------|
D|-7-7-7-7-7-7-7-7-|
A|-----------------|
E|-----------------|


Pós-Refrão

G|-------------------------------------------------------------|
D|------------2-1------------2-1------------2-1----------------|
A|--------0204---44-444-0204---22-222-0202------00-000-000-0---|
E|-00-000----------------------------------------------------4-| x2 


Ponte

G|--------------------------------------------------------------|
D|-----------2-1------------2-1------------2-1------------------|
A|-------0204----55-555-0204----44-444-0204----0000000000000000-|
E|00-000--------------------------------------------------------| x2


Outro

G|---------------------------------|
D|---------------------------------|
A|---------------------------------|
E|-0-00-0-0-00000-0-00-0-0-00000-0-|  
00:00 / 00:00
Outros vídeos desta música
Repetir
Outros vídeos desta música
Composição de Chris Shiflett / Dave Grohl / Nate Mendel / Pat Smear / Taylor Hawkins
Colaboração e revisão:
  • Luis Riviera
196 exibições

0 comentários

Ver todos os comentários

Entre para oCifra Club PRO

Tenha acesso a benefícios exclusivos no App e no Site

  • Chega de anúncios

  • Prioridade de compra em lançamentos

  • Mais recursos no app do Afinador

  • Atendimento Prioritário

  • Descontos nos produtos Cifra Club

  • Ajude a produzir mais conteúdo

00:00 / 00:00

Cifra Club Pro

Aproveite o Cifra Club com benefícios exclusivos e sem anúncios
Cifra Club Pro
Aproveite o Cifra Club com benefícios exclusivos e sem anúncios
OK