Cifra Club

Aprenda

Skin And Bones

Foo Fighters

Cifra: Principal (violão e guitarra)
tom: F
(intro)
E|-----------------------------------------------------------|
B|-----10-----10-----10-----10-----10-----10-----10----10----|
G|-----10-----10-----10-----10-----10-----10-----10----10----|
D|-----------------------------------------------------------|
A|-----------------------------------------------------------|
E|--10-----10-----10-----10-----10-----10-----10-----10---10-|

(verso)
E|----------------------------------------------------------|
B|-----10-----10----10----10-----10-----10-----10----10-----|
G|-----10-----10----10----10-----10-----10-----10----10-----|
D|----------------------------------------------------------|
A|---------------10----10-----------------------------------|
E|--10-----10-----------------9-----9------10-----10--------|

E|------------------------------|
B|----10------10-----10-----10--|
G|----10------10-----10-----10--|
D|------------------------------|
A|------------------------------|
E|--9-----9-----10-----10-------|
 "Watch me spin, Watch me spin ..."

(refrão)
E|------------------------------|
B|------------------10------10--|
G|-----3-----3------10------10--| (3x)
D|-----0-----0------------------|
A|------------------------------|
E|--3-----3-----10------10------|
 "Skin and Bones ..."

E|----------------|
B|----5----5----5-|
G|----5----5----5-|
D|----------------|
A|----------------|
E|--5----5----5---|
"Don't you know ..."

(ponte)
E|---------------------------------|
B|-----10----10------10------------|
G|-----10----10------10------------|
D|-----------------------9----12---|
A|---------8------10---------------|
E|---10----------------------------|
 "I'm just Skin and Bones..."
Composição de Dave Grohl
Colaboração e revisão:
  • Vinicius Montfort
  • Andre Bahiense
  • bruno moreira
37.133 exibições
    • ½ Tom
    • A
    • Bb
    • B
    • C
    • Db
    • D
    • Eb
    • E
    • F
    • F#
    • G
    • Ab
  • Adicionar à lista

    0 comentários

    Ver todos os comentários
    00:00 / 00:00
    Outros vídeos desta música
    Repetir Qualidade Automático
    Outros vídeos desta música
    00:00 / 00:00
    Automático

    Cifra Club Pro

    Aproveite o Cifra Club com benefícios exclusivos e sem anúncios
    Cifra Club Pro
    Aproveite o Cifra Club com benefícios exclusivos e sem anúncios
    OK